top separator

Home

Forum

What's New

Submit a Tab

FAQ

Links

Contact Us

Link to Us

MetalTabs.com logo

Bands

0-9

A

B

C

D

E

F

G

H

I

J

K

L

M

N

O

P

Q

R

S

T

U

V

W

X

Y

Z

Search

What

Where
 

Lord Belial - "Black winter blood-bath" Guitar Tab

Plain Text Version
More Lord Belial Tabs

Hits: 4487
Rated: 4.00 out of 5 (6 votes)
Updated: 2003-05-17 08:15:12

 

Important note
This tab is available online because we obtained explicit permission from Lord Belial or their label.


#----------------------------------PLEASE NOTE---------------------------------#
#This file is the author's own work and represents their interpretation of the #
#song. You may only use this file for private study, scholarship, or research. #
#Unless specified otherwise, this is NOT an official tab from the band members.#
#------------------------------------------------------------------------------#

  Visit MetalTabs.com for more metal tablature
  
Artist - Lord Belial
Album  - Enter The Moonlight Gate
Song Title - Black Winter Bloodbath
Tabbed By: Ricky Salas (rick_s0910@yahoo.com)

I am not familiar with the tuning, I just tune it while playing the song.
                                    (I think its 1/2 or whole step down)

/   - slide up      Guitar 1 - Rhythm Guitar (I could have also tabbed
\   - slide down      the bass part instead of the guitar, but it sounds good)
..  - trem pick     Guitar 2 - Lead Guitar
pm- - palm mute

Riff 1  (Guitar 1)               (3x) then go to Riff 2****(4x after riff 2)
----------------------------------------------------------------------|
----------------------------------------------------------------------|
----------------------------------------------------------------------|
-11-11-11-11-11-11-11-11-11-11-11-11-11-11-11-11-11-11-11--12-15-14---|
-9---9--9--9--9--9--9--9--9--9--9--9--9--9--9--9--9--9--9--10-13-12---|
----------------------------------------------------------------------|


Riff 2 (Both Guitars)                            (1x) then go back to Riff 1
------------------------------------------------------------------------|
------------------------------------------------------------------------|
------------------------------------------------------------------------|
-11-11-11-11-11-11-11--9--12--11-11-11-11-11-11-11-11-11-11--12-15-14---|
-9---9--9--9--9--9--9--7--10---9--9--9--9--9--9--9--9--9--9--10-13-12---|
-----------------------7--10--------------------------------------------|


Riff 3 (Guitar 1)    (2x)
------------------------|
------------------------|
------------------------|
--9--(9)---10---(10)----|
--7--(7)----8----(8)----|
--7--(7)----8----(8)----|

Riff 3 (Guitar 2)
-------------------------------------------------------
-------------------------------------------------------
-------------------------------------------------------
----7-9-10-9h10p9-7-----10--12-10h12p10-9h10p9-7h9p7---
--7-----------------7-8------------------------------7-
-------------------------------------------------------
                             (1x)
--------------------------------|
--------------------------------|
--------------------------------|
---7-9-10-9h10p9----------------|
-7---------------7--7/8-8\5-5~~-|
--------------------------------|


Riff 4 (Guitar 1)    (6x)
------------------------|
------------------------|
------------------------|
--9........10........---|
--7.........8........---|
--7.........8........---|

Riff 4 (Guitar 2)
----------------------------------------------------------------
----------------------------------------------------------------
----------------------------------------------------------------
-----7..9..10.9h10p9..7-----10..12..10h12p10..9h10p9..7h9p7.----
--7..------------------7..8..-------------------------------7..-
----------------------------------------------------------------
                                           (3x)
-----------------------------------------------|
-----------------------------------------------|
-----------------------------------------------|
---7..9..10..9h10p9..--------------------------|
7..------------------7..--7...8...5....--------|
-----------------------------------------------|


Riff 5  (Guitar 1)   (2x)
---------------------|
---------------------|
---------------------|
--11......12......---|
---9......10......---|
---9......10......---|

Riff 5 (Guitar 2)                               (1x)
--------------------------------------------------------------|
--------------------------------------------------------------|
--------------------------------------------------------------|
----------------------------------------8...7...5...4...------|
--------------------------------------------------------------|
----------------9...7...5...9...2...--------------------------|


Riff 6  (Guitar 1)                                    (2x)
---------------------------------------------------------|
---------------------------------------------------------|
---------------------------------------------------------|
--9....2....10....9....7....9....2....5....4....5....----|
--9....2....10....9....5....9....2....5....4....5....----|
--7....0.....8....7....5....7....0....3....2....3....----|
                                                                  (2x)
------------------------------------------------------------------------|
------------------------------------------------------------------------|
------------------------------------------------------------------------|
-------5...4..2..4...-------------4...----5..4..2..4...-----------------|
--2...---------------2...5..4..5..----2...-------------2...5..4..5...---|
------------------------------------------------------------------------|


 Riff 7   (Guitar 1)                                (2x)
-------------------------------------------------------|
-------------------------------------------------------|
-------------------------------------------------------|
-------------------------------------------------------|
--5....7....5....3....-----5....7....5....3....--------|
----------------------5....--------------------5...----|


Riff 7 (Guitar 2)                                           (2x)
--------------------------------------------------------------|
--------------------------------10...-------------------------|
--10...9...9...8.....------10...-----10...9...----------------|
---------------------0.....-------------------10....0....-----|
--------------------------------------------------------------|
--------------------------------------------------------------|


Riff 8  (Guitar 1)                                  (2x)
-------------------------------------------------------|
-------------------------------------------------------|
-------------------------------------------------------|
--7--9--10--14--6----7--9--10--14--15--14--12--10--9---|
--5--7---8--12--4----5--7---8--12--13--12--10---8--7---|
--5--7---8--12--4----5--7---8--12--13--12--10---8--7---|


Riff 8 (Guitar 2)                                          (2x)
--------------------------------------------------------------|
--------------------------------------------------------------|
---------------------------------------9..10..9..7..----------|
--7...9...10...9..7..6....7...9...10...-------------10..9..---|
--------------------------------------------------------------|
--------------------------------------------------------------|



Riff 9  (Guitar 1)           (4x)
-------------------------------|
-------------------------------|
-------------------------------|
--2--(2)---3--(3)---2--(2)-----|
--2--(2)---1--(1)---2--(2)-----|
--0--(0)---1--(1)---0--(0)-----|


Riff 9 (Guitar 2)
---------------------------------|
---------------------------------|
---------------------------------|
------9..--------11..12..9...----|
--10..---10..12..----------------|
---------------------------------|


Riff 10  (Guitar 1)                                   (2x)
---------------------------------------------------------|
---------------------------------------------------------|
---------------------------------------------------------|
--7..........2...3...2...3...5........10........9--------|
--7..........2...3...2...3...5.........8........7--------|
--5..........0...1...0...1...7.........8........7--------|


Riff 10 (Guitar 2)                                       (2x)
------------------------------------------------------------|
------------------------------------------------------------|
--9...----10..-----------------9...----------9...10...9...--|
-----10...----9...10...9...10...---10...12...---------------|
------------------------------------------------------------|
------------------------------------------------------------|



Riff 11  (Guitar 1)                  (2x)
----------------------------------------|
----------------------------------------|
----------------------------------------|
--9......-------------------------------|
--7......10.......9......10.....10------|
----------8.......7.......8.....12------|

Riff 11 (Guitar 2)                              (2x)
---------------------------------------------------|
---------------------------------------------------|
---------------------------------------------------|
------9--7--5-5h7p5---9--7--5-5h7p5-4-(4)-5--7-----|
--------------------3------------------------------|
-0-(0)---------------------------------------------|


This song is the author's (Lord Belial) own work and is only intended for private use.

  Visit MetalTabs.com for more metal tablature

bottom separator

Contact Us | Privacy Policy | Disclaimer | Legal Notice
Copyright © 2001-2014 MetalTabs.com. All Rights Reserved.