top separator

Home

Forum

What's New

Submit a Tab

FAQ

Links

Contact Us

Link to Us

MetalTabs.com logo

Bands

0-9

A

B

C

D

E

F

G

H

I

J

K

L

M

N

O

P

Q

R

S

T

U

V

W

X

Y

Z

Search

What

Where
 

After Forever - "Yield To Temptation" Guitar Tab

Plain Text Version
More After Forever Tabs

Hits: 6779
Rated: 4.25 out of 5 (8 votes)
Updated: 2003-05-17 08:10:04

 

By:

Darkenelf

sendpm.gif

email.gif

Important note
This tab is available online because we obtained explicit permission from After Forever or their label.


#----------------------------------PLEASE NOTE---------------------------------#
#This file is the author's own work and represents their interpretation of the #
#song. You may only use this file for private study, scholarship, or research. #
#Unless specified otherwise, this is NOT an official tab from the band members.#
#------------------------------------------------------------------------------#

  Visit MetalTabs.com for more metal tablature
  
Band: After Forever
Album: Prison of Desire
Song: Yield to Temptation
Tabbed by: Martijn Wietsma (Darkenelf)
Tab Date: 19-03-2003
Email: dalvanian@yahoo.com

Standard E Tuning

riff A:
|--------------------------------------------------------|
|--------------------------------------------------------|
|--------------------------------------------------------|
|-7---7---77--5---------5/8--7---7--77/8-----------------|
|-5-5-5-5-55--3-3--8----3/6--5-5-5--55/6-----------------|
|------------------6-6-----------------------------------|
    .   .       .    .         .
					(2x)
riff B:
|--------------------------------------------------------|
|--------------------------------------------------------|
|--------------------------------------------------------|
|-7---7---77--5---------5/8--7---7--7/8--10-8------------|
|-5-5-5-5-55--3-3--8----3/6--5-5-5--5/6---8-6------------|
|------------------6-6-----------------------------------|
    .   .       .    .         .	(1x)

riff A:
|--------------------------------------------------------|
|--------------------------------------------------------|
|--------------------------------------------------------|
|-7---7---77--5---------5/8--7---7--77/8-----------------|
|-5-5-5-5-55--3-3--8----3/6--5-5-5--55/6-----------------|
|------------------6-6-----------------------------------|
    .   .       .    .         .
					(2x)
riff C:
|-6p5----5-6p5--6p5----5-6p5--3h6------------------------|
|-----3-------------3------------------------------------|
|--------------------------------------------------------|
|--------------------------------------------------------|
|--------------------------------------------------------|
|--------------------------------------------------------|
					(4x)

Repeat under riff C:

riff A 2x
riff B 1x
riff A 1x

riff D:
|--------------------------------------------------------|
|--------------------------------------------------------|
|--------------------------------------------------------|
|-7-----------------8-8---7-----------------8-8----------|
|-5-555-555-555-555-6-6---5-555-555-555-555-6-6----------|
|--------------------------------------------------------|
    ... ... ... ...         ... ... ... ...

|--------------------------------------------------------|
|--------------------------------------------------------|
|--------------------------------------------------------|
|-7-----------------8-8---7----------3--5--8-------------|
|-5-555-555-555-555-6-6---5-555-555--1--3--6-------------|
|--------------------------------------------------------|
    ... ... ... ...         ... ...

riff E:
|--------------------------------------------------------|
|--------------------------------------------------------|
|--------------------------------------------------------|
|-7-----------------8-8---7-----------------8-8----------|
|-5-555-555-555-555-6-6---5-555-555-555-555-6-6----------|
|--------------------------------------------------------|
    ... ... ... ...         ... ... ... ...

|--------------------------------------------------------|
|--------------------------------------------------------|
|--------------------------------------------------------|
|-7-----------------8-8----------------------------------|
|-5-555-555-555-555-6-6---88--888--888--8----------------|
|-------------------------66--666--666--6----------------|
    ... ... ... ...       ..  ...  ...  .

Under riff fast keyboard:
|--------------------------------------------------------|
|--------------------------------------------------------|
|--------------------------------------------------------|
|-5-5-5-5-5-5-6-6---5-5-5-5-5-5-6-6---5-5-5-5-5-5-6-6----|
|--------------------------------------------------------|
|--------------------------------------------------------|

|--------------------------------------------------------|
|--------------------------------------------------------|
|--------------------------------------------------------|
|-5-5-5-5-------6----------------------------------------|
|---------6-6-8------------------------------------------|
|--------------------------------------------------------|
					(2x)
keyboard riff:
|-10-8-10-8----------8--10-8-10-8----------11------------|
|-----------11-10-11--------------11-10-11---------------|
|--------------------------------------------------------|
|--------------------------------------------------------|
|--------------------------------------------------------|
|--------------------------------------------------------|

|-10-8-10-8----------8--10-8-10-8-------8h11-------------|
|-----------11-10-11--------------11-10------------------|
|--------------------------------------------------------|
|--------------------------------------------------------|
|--------------------------------------------------------|
|--------------------------------------------------------|
					(2x)
riff G:
|--------------------------------------------------------|
|--------------------------------------------------------|
|--------------------------------------------------------|
|-7--8p7p5h8--/10----------------------------------------|
|--------------------------------------------------------|
|--------------------------------------------------------|

riff H:
|--------------------------------------------------------|
|--------------------------------------------------------|
|--------------------------------------------------------|
|--------------------------------------------------------|
|-77-77-77-77-7-8-5---777-777-777-777-7-8-5--------------|
|-55-55-55-55-5-6-3---555-555-555-555-5-6-3--------------|
  .. .. .. .. . .     ... ... ... ... . .

|--------------------------------------------------------|
|--------------------------------------------------------|
|--------------------------------------------------------|
|--------------------------------------------------------|
|-77-77-77-77-7-8-5--------------------------------------|
|-55-55-55-55-5-6-3--------------------------------------|
  .. .. .. .. . .

riff G:
|--------------------------------------------------------|
|--------------------------------------------------------|
|--------------------------------------------------------|
|-7--8p7p5h8--/10----------------------------------------|
|--------------------------------------------------------|
|--------------------------------------------------------|

riff H:
|--------------------------------------------------------|
|--------------------------------------------------------|
|--------------------------------------------------------|
|--------------------------------------------------------|
|-77-77-77-77-7-8-5---777-777-777-777-7-8-5--------------|
|-55-55-55-55-5-6-3---555-555-555-555-5-6-3--------------|
  .. .. .. .. . .     ... ... ... ... . .

|--------------------------------------------------------|
|--------------------------------------------------------|
|--------------------------------------------------------|
|--------------------------------------------------------|
|-77-77-77-77-7-8-5--------------------------------------|
|-55-55-55-55-5-6-3--------------------------------------|
  .. .. .. .. . .

riff G:
|--------------------------------------------------------|
|--------------------------------------------------------|
|--------------------------------------------------------|
|-7--8p7p5h8--/10----------------------------------------|
|--------------------------------------------------------|
|--------------------------------------------------------|

riff I:
|---------------------------------------------------------|
|----------------------------------3h4-1-4-3-------3h4----|
|--------------------------------------------5---------5--|
|-5----------------5-------6-6---5-----------------------5|
|---5-6--8-6-5-------5-6-8----------------------5---------|
|--------------8------------------------------------------|

riff H: 1x
riff G: 1x
riff H: 1x
riff G: 1x
riff I: 2x

riff J:
|--------------------------------------------------------|
|--------------------------------------------------------|
|--------------------------------------------------------|
|--------------------------------------------------------|
|-7-----7-----7-----6-8-5--------------------------------|
|-5-----5-----5------------------------------------------|

riff K:
|--------------------------------------------------------|
|--------------------------------------------------------|
|--------------------------------------------------------|
|--------------------------------------------------------|
|-7777-5555-8888-7775---7777-5555-8888-7775--------------|
|--------------------------------------------------------|

|--------------------------------------------------------|
|--------------------------------------------------------|
|--------------------------------------------------------|
|-------------------------------8-10-7-------------------|
|-7777-5555-8888-7775---7777-5--6--8-5-------------------|
|--------------------------------------------------------|
					(4x)
riff L
|--------------------------------------------------------|
|--------------------------------------------------------|
|--------------------------------------------------------|
|-5-5-5-5-5-5-6-6---5-5-5-5-5-5-6-6---5-5-5-5-5-5-6-6----|
|--------------------------------------------------------|
|--------------------------------------------------------|

|--------------------------------------------------------|
|--------------------------------------------------------|
|--------------------------------------------------------|
|-5-5-5-5-------6----------------------------------------|
|---------6-6-8-------------------------------6-8-5------|
|--------------------------------------------------------|
					(2x)
riff M:
|--------------------------------------------------------|
|--------------------------------------------------------|
|--------------------------------------------------------|
|--------------------------------------------------------|
|----12----12----12----12----13p12-----------------------|
|-10----10----10----10----10-----------------------------|
					(2x)
riff N:
|--------------------------------------------------------|
|--------------------------------------------------------|
|--------------------------------------------------------|
|--------------------------------------------------------|
|-7777-5555-8888-7775---7777-5555-8888-7775--------------|
|--------------------------------------------------------|
					(4x)
riff M:
|--------------------------------------------------------|
|--------------------------------------------------------|
|--------------------------------------------------------|
|--------------------------------------------------------|
|----12----12----12----12----13p12-----------------------|
|-10----10----10----10----10-----------------------------|
					(2x)
riff N:
|--------------------------------------------------------|
|--------------------------------------------------------|
|--------------------------------------------------------|
|--------------------------------------------------------|
|-7777-5555-8888-7775---7777-5555-8888-7775--------------|
|--------------------------------------------------------|
					(4x)
riff O:
|--------------------------------------------------------|
|--------------------------------------------------------|
|--------------------------------------------------------|
|--------------------------------------------------------|
|----12----12----12----12----13p12-----------------------|
|-10----10----10----10----10-----------------------------|

|--------------------------------------------------------|
|--------------------------------------------------------|
|--------------------------------------------------------|
|--------------------------------------------------------|
|----12----12----12----12----13p12-----------------------|
|-10----10----10----10----10-----------------------------|

|---------------------------------------------------------|
|---------------------------------------------------------|
|---------------------------------------------------------|
|---------------------------------------------------------|
|---10---10---10---10---11p10-----10---10---12----13----12|
|-8----8----8----8----8--------88----8----8----10----10---|
					(2x)
riff D: (ending)
|--------------------------------------------------------|
|--------------------------------------------------------|
|--------------------------------------------------------|
|-7-----------------8-8---7-----------------8-8----------|
|-5-555-555-555-555-6-6---5-555-555-555-555-6-6----------|
|--------------------------------------------------------|
    ... ... ... ...         ... ... ... ...

|--------------------------------------------------------|
|--------------------------------------------------------|
|--------------------------------------------------------|
|-7-----------------8-8---7----------3--5--8-------------|
|-5-555-555-555-555-6-6---5-555-555--1--3--6-------------|
|--------------------------------------------------------|
    ... ... ... ...         ... ...	(2x)

  Visit MetalTabs.com for more metal tablature

bottom separator

Contact Us | Privacy Policy | Disclaimer | Legal Notice
Copyright © 2001-2014 MetalTabs.com. All Rights Reserved.