top separator

Home

Forum

What's New

Submit a Tab

FAQ

Links

Contact Us

Link to Us

MetalTabs.com logo

Bands

0-9

A

B

C

D

E

F

G

H

I

J

K

L

M

N

O

P

Q

R

S

T

U

V

W

X

Y

Z

Search

What

Where
 

Moonsorrow - "Pakanajuhla" Guitar Tab

Plain Text Version
More Moonsorrow Tabs

Hits: 10908
Rated: 4.00 out of 5 (11 votes)
Updated: 2003-05-17 08:05:40

 

By:

Darkenelf

sendpm.gif

email.gif

Important note
This tab is available online because we obtained explicit permission from Moonsorrow or their label.


#----------------------------------PLEASE NOTE---------------------------------#
#This file is the author's own work and represents their interpretation of the #
#song. You may only use this file for private study, scholarship, or research. #
#Unless specified otherwise, this is NOT an official tab from the band members.#
#------------------------------------------------------------------------------#

  Visit MetalTabs.com for more metal tablature
  
Band: Moonsorrow
Album: Suden Uni
Song: Pakana Juhla
Tabbed by: Martijn Wietsma (Darkenelf)
Email: dalvanian@yahoo.com
Tab Date: 16-03-2003

Standard E Tuning

riff A:
|-----------7-7------------------------------------------------|
|--------8-------10-8h10-7-7-----------------------------------|
|-9-7h9----------------------9-7-9-----------------------------|
|----------------------------------9---------------------------|
|--------------------------------------------------------------|
|--------------------------------------------------------------|

|----------7-7-------------------------------------------------|
|-------8------10-8h10-7-7h8-----------------------------------|
|-9-7h9----------------------9-9-------------------------------|
|--------------------------------------------------------------|
|--------------------------------------------------------------|
|--------------------------------------------------------------|
						(4x)
riff B: under riff A
|--------------------------------------------------------------|
|--------------------------------------------------------------|
|--------------------------------------------------------------|
|--------------------------------------------------------------|
|-2-2--2-2--2-2--2-2----2-2--2-2--2-2--2-2---------------------|
|-0-0--0-0--0-0--0-0----0-0--0-0--0-0--0-0---------------------|
  x x  x x  x x  x x    x x  x x  x x  x x	(2x)

riff C:
|--------------------------------------------------------------|
|-12------------------------12---------------------------------|
|----9-9--9h11h12--11p9--------9-9--9h11h12--9-9---------------|
|--------------------------------------------------------------|
|--------------------------------------------------------------|
|--------------------------------------------------------------|
						(4x)
riff D: under riff C
|--------------------------------------------------------------|
|--------------------------------------------------------------|
|-4-------------------4--------4-------------------------------|
|-4--2-2--------------4--------4--2----------------------------|
|-2--2-2--------------2--------2--2----------------------------|
|----0-0--000-000-00----00-00-----0----------------------------|
          xxx xxx xx    xx xx			(4x)

riff E:
|--------------------------------------------------------------|
|--------------------10p---------------------------------------|
|-12-11p9-9h11-11h12-----12p11----12-11p9-9h11-11h12p11--------|
|-------------------------------------------------------12-----|
|--------------------------------------------------------------|
|--------------------------------------------------------------|
						(2x)
riff C:
|--------------------------------------------------------------|
|-12------------------------12---------------------------------|
|----9-9--9h11h12--11p9--------9-9--9h11h12--9-9---------------|
|--------------------------------------------------------------|
|--------------------------------------------------------------|
|--------------------------------------------------------------|
						(4x)
riff D: under riff C
|--------------------------------------------------------------|
|--------------------------------------------------------------|
|-4-------------------4--------4-------------------------------|
|-4--2-2--------------4--------4--2----------------------------|
|-2--2-2--------------2--------2--2----------------------------|
|----0-0--000-000-00----00-00-----0----------------------------|
          xxx xxx xx    xx xx			(4x)

riff F:
|--------------------------------------------------------------|
|--------------------------------------------------------------|
|-----------4--44-44-------------------------------------------|
|-2--22-22--4--44-44-------------------------------------------|
|-2--22-22--2--22-22--7--77-77--5--55-55-----------------------|
|-0--00-00------------5--55-55--3--33-33-----------------------|
  x  xx xx  x  xx xx  x  xx xx  x  xx xx	(4x)

riff G:
|--------------------------------------------------------------|
|--------------------------------------------------------------|
|-------4-4----------------------------------------------------|
|-2-2---4-4---7-7---5-5----------------------------------------|
|-2-2---2-2---7-7---5-5----------------------------------------|
|-0-0---------5-5---3-3----------------------------------------|
						(4x)
riff H:
|--------------------------------------------------------------|
|--------------------------------------------------------------|
|------------4--44-44---5--55-55---4--44-44--------------------|
|-2--22-22---4--44-44---5--55-55---4--44-44--------------------|
|-2--22-22---2--22-22---3--33-33---2--22-22--------------------|
|-0--00-00-----------------------------------------------------|
  x  xx xx   x  xx xx   x  xx xx   x  xx xx

|--------------------------------------------------------------|
|--------------------------------------------------------------|
|-----------4--44-44-------------------------------------------|
|-2--22-22--4--44-44-------------------------------------------|
|-2--22-22--2--22-22--7--77-77--5--55-55-----------------------|
|-0--00-00------------5--55-55--3--33-33-----------------------|
  x  xx xx  x  xx xx  x  xx xx  x  xx xx	(2x)

riff I:
|--------------------------------------------------------------|
|---7h8p7--------------------7h8p7-8p7-10-8p7------------------|
|-9-------9p7p---7h9-7-----9------------------7----------------|
|--------------9-----------------------------------------------|
|--------------------------------------------------------------|
|--------------------------------------------------------------|
						(4x)
riff H: under riff I
|--------------------------------------------------------------|
|--------------------------------------------------------------|
|------------4--44-44---5--55-55---4--44-44--------------------|
|-2--22-22---4--44-44---5--55-55---4--44-44--------------------|
|-2--22-22---2--22-22---3--33-33---2--22-22--------------------|
|-0--00-00-----------------------------------------------------|
  x  xx xx   x  xx xx   x  xx xx   x  xx xx

|--------------------------------------------------------------|
|--------------------------------------------------------------|
|-----------4--44-44-------------------------------------------|
|-2--22-22--4--44-44-------------------------------------------|
|-2--22-22--2--22-22--7--77-77--5--55-55-----------------------|
|-0--00-00------------5--55-55--3--33-33-----------------------|
  x  xx xx  x  xx xx  x  xx xx  x  xx xx	(2x)

riff C:
|--------------------------------------------------------------|
|-12------------------------12---------------------------------|
|----9-9--9h11h12--11p9--------9-9--9h11h12--9-9---------------|
|--------------------------------------------------------------|
|--------------------------------------------------------------|
|--------------------------------------------------------------|
						(4x)
riff D: under riff C
|--------------------------------------------------------------|
|--------------------------------------------------------------|
|-4-------------------4--------4-------------------------------|
|-4--2-2--------------4--------4--2----------------------------|
|-2--2-2--------------2--------2--2----------------------------|
|----0-0--000-000-00----00-00-----0----------------------------|
          xxx xxx xx    xx xx			(4x)

riff J:
|--------------------------------------------------------------|
|--------------------------------------------------------------|
|--------------------------------7-5---------------------------|
|------------------------------------8-7-5----5-7--------------|
|-5------4------5------4--------------------8------------------|
|-3-333--2-222--3-333--2-222-----------------------------------|

riff K:
|--------------------------------------------------------------|
|--------------------------------------------------------------|
|-----------------------7--7-5---------------------------------|
|-7------9------10------5------8-7-5---5-7---------------------|
|-5-555--7-777---8-888---------------8-------------------------|
|--------------------------------------------------------------|
    xxx    xxx     xxx				(8x)

riff L:
|--------------------------------------------------------------|
|--------------------------------------------------------------|
|--------------------------------------------------------------|
|-7--5/7-7---7--5/10-5-----------------------------------------|
|-5--3/5-5---5--3/-8-3-----------------------------------------|
|--------------------------------------------------------------|
						(4x)
riff M:
|--------------------------------------------------------------|
|--------------------------------------------------------------|
|--------------------------------------------------------------|
|-7---------------7-7-----7----------------7-------------------|
|-7---------------7-7-----7----------------7-------------------|
|-5--555--5--555--5-5-----5--555--5--5555--5-------------------|
     xxx  x  xxx             xxx  x  xxxx	(2x)

riff K:
|--------------------------------------------------------------|
|--------------------------------------------------------------|
|-----------------------7--7-5---------------------------------|
|-7------9------10------5------8-7-5---5-7---------------------|
|-5-555--7-777---8-888---------------8-------------------------|
|--------------------------------------------------------------|
    xxx    xxx     xxx				(4x)

riff N:
|--------------------------------------------------------------|
|--------------------------------------------------------------|
|--------------------------------------------------------------|
|-9-9--11------------------------------------------------------|
|-7-7---9--12--------------------------------------------------|
|----------10--------------------------------------------------|
						(8x)
acoustic part (missing)

bass part during the acoustic part:
|--------------------------------------------------------------|
|--------------------------------------------------------------|
|--------------------------------------------------------------|
|-0-2-3-5--7-8-7-5---------------------------------------------|
						(8x)
riff O: (end riff)
|--------------------------------------------------------------|
|--------------------------------------------------------------|
|--------------------------------------------------------------|
|-2-2-----2----------------------------------------------------|
|-2-2--5\-2---7-----7--7--7--7---------------------------------|
|-0-0--3\-0---5-----5--5--5--5---------------------------------|
						(8x)

  Visit MetalTabs.com for more metal tablature

bottom separator

Contact Us | Privacy Policy | Disclaimer | Legal Notice
Copyright © 2001-2014 MetalTabs.com. All Rights Reserved.