top separator

Home

Forum

What's New

Submit a Tab

FAQ

Links

Contact Us

Link to Us

MuSpy.com

MetalTabs.com logo

Bands

0-9

A

B

C

D

E

F

G

H

I

J

K

L

M

N

O

P

Q

R

S

T

U

V

W

X

Y

Z

Search

What

Where
 

Celtic Frost - "Fainted Eyes" Guitar Tab

Plain Text Version
More Celtic Frost Tabs

Hits: 4674
Rated: 4.00 out of 5 (1 vote)
Updated: 2003-05-17 07:52:20

 

By:

Kramer

sendpm.gif

email.gif

Important note
This tab is available online because we obtained explicit permission from Celtic Frost or their label.


#----------------------------------PLEASE NOTE---------------------------------#
#This file is the author's own work and represents their interpretation of the #
#song. You may only use this file for private study, scholarship, or research. #
#Unless specified otherwise, this is NOT an official tab from the band members.#
#------------------------------------------------------------------------------#

  Visit MetalTabs.com for more metal tablature
  
Celtic Frost "Fainted Eyes" from TO MEGA THERION (1985)

Tabbed by Nick S. (Kramer)
E-mail: Pantera9560@aol.com (Use the song & band name as the subj.)

Riff 1A 8x
D----------------------2--3--2---
A-----5------5------5--0--1--0---
E-000-3--000-3--000-3------------

Riff 2A 3x
A-333333333333-4--5---
E-111111111111-2--3---

Riff 3 once
D-----3-----4-----5-----6--
A-----1-----2-----3-----4--
E-000---000---000---000----

Riff 1A 4x
Riff 2A 3x
Riff 3 once

Riff 2B twice
D-333333333333-4--5--333333333333-3--4---
A-111111111111-2--3--111111111111-1--2---

Riff 4 4x
D-----4-----2-----3------------
A-----2-----0-----1------6/5---
E-000---000---000---000--4/3---

Riff 1A 4x
Riff 2A 3x
Riff 3 once
Riff 1A 4x
Riff 2A 3x
Riff 3 once
Riff 2B twice
Riff 4 4x

Riff 1B 4x
A---4---5---7-8--8-7--
E-0-2-0-3-0-5-6--6-5--

Riff 5 4x
D--------------3-4-------
A-4-2-4-4-4-4--1-2--4-3--
E-2-2-2-2-2-2-------2-1--

Riff 6 4x
D-3/4----------------------------
A-1/2--2-------------------------
E------0--0-0-0-0-0-0-0-0-0-0-0--

Riff 7 4x
A-4/3-------4--5---
E-2/1--0-0--2--3---

Riff 1A 4x
Riff 2A 3x
Riff 3 once
Riff 1A 4x
Riff 2A 3x
Riff 3 once
Riff 2B twice
Riff 4 4x
Then end w/
A---4---5---7-8/
E-0-2-0-3-0-5-6/

If there's another song from this album you want to learn, E-mail me w/ a request or two.

  Visit MetalTabs.com for more metal tablature

bottom separator

Contact Us | Privacy Policy | Disclaimer | Legal Notice
Copyright © 2001-2014 MetalTabs.com. All Rights Reserved.