top separator

Home

Forum

What's New

Submit a Tab

FAQ

Links

Contact Us

Link to Us

MuSpy.com

MetalTabs.com logo

Bands

0-9

A

B

C

D

E

F

G

H

I

J

K

L

M

N

O

P

Q

R

S

T

U

V

W

X

Y

Z

Search

What

Where
 

Quo Vadis - "I Believe" Guitar Tab

Plain Text Version
More Quo Vadis Tabs

Hits: 10127
Rated: 4.45 out of 5 (11 votes)
Updated: 2003-05-17 07:32:11

 

Important note
We did our best to reach Quo Vadis and ask for their permission to publish this tab. Unfortunately they did not respond to our requests or we could not find a way to contact them. This tab is available online until Quo Vadis tells us to take it down.


#----------------------------------PLEASE NOTE---------------------------------#
#This file is the author's own work and represents their interpretation of the #
#song. You may only use this file for private study, scholarship, or research. #
#Unless specified otherwise, this is NOT an official tab from the band members.#
#------------------------------------------------------------------------------#

  Visit MetalTabs.com for more metal tablature
  
                                    I BELIEVE
                            As recorded by Quo Vadis
                      (From the 2000 Album DAY INTO NIGHT)

Words and Music by Arie Itman
Arranged by Quo Vadis
Transcribed by Eitan "Skrud" Levi - drskrud@hotmail.com

Performance Notes
-----------------
This is a relatively easy Quo Vadis song to play, although the timings are not
as natural as you'd probably like. I suggest playing along with the song and
trying to figure out exactly where the notes fit.  These tabs are very accurate
you have my word. I did not tab this by ear, as Arie Itman is my guitar teacher
and he taught it to me in person. But if you notice any errors e-mail me.

Also pay attention to the song structure
because I used musical directions in PowerTab Editor which don't appear so well
in ASCii tabs. In fact, I highly reccomend you use the Power Tab version of
this tab (to get it just e-mail me at drskrud@hotmail.com and I will send it
to you). If you're not familiar with PowerTab, get the software at
www.power-tab.net.


Gtr I (E A D G B E) - 'Arie Itman'
Gtr II (E A D G B E) - 'Bart Frydrychowicz'
Gtr III (E A D G B E) - 'Arie Itman (Solo Guitar)'

   Intro
    E                             Dsus2/E
   4/4
    Gtrs I, II
    PM------------------------------------------------------|
||------------------------------|-----------------------------|
||o-----------------------------|-----------------------------|
||------------------------------|-----------------------------|
||------------------------------|-----------------------------|
||o-7-7-7--7--7-7--7-7--7-7-7-7-|-5-5-5--5--5-5--5-5--5-5-5-5-|
||--0-0-0--0--0-0--0-0--0-0-0-0-|-0-0-0--0--0-0--0-0--0-0-0-0-|


  C                             E5
  PM---------------------------------------------|      ~
|-----------------------------|-----------------------------||
|-----------------------------|----------------------------o||
|-----------------------------|-----------------------------||
|-----------------------------|-----------------------------||
|-1-1-1--1--1-1--1-1--1-1-1-1-|-2-2-2--2--2-2--2-2---------o||
|-0-0-0--0--0-0--0-0--0-0-0-0-|-0-0-0--0--0-0--0-0--3h5-5---||


  E
|-----------------------------------------|
|-----------------------------------------|
|-----------------------------------------|
|-----------------------------------------|
|-7-7-7-----7-----7-7-----7-7-----7-7-7-7-|
|-0-0-0-----0-----0-0-----0-0-----0-0-0-0-|
|
| Gtr II
|-----------------------------------------|
|-----------------------------------------|
|-----------------------------------------|
|-----------------------------------------|
|-7-7-7-----7-----7-7-----7-7-----7-7-7-7-|
|-----------------------------------------|


  Esus2
|-----------------------------------------|
|-----------------------------------------|
|-----------------------------------------|
|-----------------------------------------|
|-9-9-9-----9-----9-9-----9-9-----9-9-9-9-|
|-0-0-0-----0-----0-0-----0-0-----0-0-0-0-|
|
|-----------------------------------------|
|-----------------------------------------|
|-----------------------------------------|
|-----------------------------------------|
|-9-9-9-----9-----9-9-----9-9-----9-9-9-9-|
|-----------------------------------------|


  C5
|---------------------------------------------------------|
|---------------------------------------------------------|
|---------------------------------------------------------|
|---------------------------------------------------------|
|-10-10-10------10------10-10------10-10------10-10-10-10-|
|--8--8--8-------8-------8--8-------8--8-------8--8--8--8-|
|
|---------------------------------------------------------|
|---------------------------------------------------------|
|---------------------------------------------------------|
|---------------------------------------------------------|
|-10-10-10------10------10-10------10-10------10-10-10-10-|
|--8--8--8-------8-------8--8-------8--8-------8--8--8--8-|


  G5/D                     D
                                                  ~
|----------------------------------------------------|
|----------------------------------------------------|
|----------------------------------------------------|
|----------------------------------------------------|
|-10-10-10------10------10--9-------9--9-------------|
|-10-10-10------10------10-10------10-10------5h7-7--|
|
|                                                 ~
|----------------------------------------------------|
|----------------------------------------------------|
|----------------------------------------------------|
|----------------------------------------------------|
|-10-10-10------10------10--9-------9--9-------------|
|-10-10-10------10------10-10------10-10------5h7-7--|


  E
|-----------------------------------------|
|-----------------------------------------|
|-----------------------------------------|
|-----------------------------------------|
|-7-7-7-----7-----7-7-----7-7-----7-7-7-7-|
|-0-0-0-----0-----0-0-----0-0-----0-0-0-0-|
|
|-----------------------------------------|
|-----------------------------------------|
|-----------------------------------------|
|-----------------------------------------|
|-7-7-7-----7-----7-7-----7-7-----7-7-7-7-|
|-----------------------------------------|


  Esus2
|-----------------------------------------|
|-----------------------------------------|
|-----------------------------------------|
|-----------------------------------------|
|-9-9-9-----9-----9-9-----9-9-----9-9-9-9-|
|-0-0-0-----0-----0-0-----0-0-----0-0-0-0-|
|
|-----------------------------------------|
|-----------------------------------------|
|-----------------------------------------|
|-----------------------------------------|
|-9-9-9-----9-----9-9-----9-9-----9-9-9-9-|
|-----------------------------------------|


  C5
|---------------------------------------------------------|
|---------------------------------------------------------|
|---------------------------------------------------------|
|---------------------------------------------------------|
|-10-10-10------10------10-10------10-10------10-10-10-10-|
|--8--8--8-------8-------8--8-------8--8-------8--8--8--8-|
|
|---------------------------------------------------------|
|---------------------------------------------------------|
|---------------------------------------------------------|
|---------------------------------------------------------|
|-10-10-10------10------10-10------10-10------10-10-10-10-|
|--8--8--8-------8-------8--8-------8--8-------8--8--8--8-|


  G5/D
                                                  ~
|----------------------------------------------------|
|----------------------------------------------------|
|----------------------------------------------------|
|----------------------------------------------------|
|-10-10-10------10------10--9-------9--9----------5--|
|-10-10-10------10------10-10------10-10------3h5----|
|
|                                                 ~
|----------------------------------------------------|
|----------------------------------------------------|
|----------------------------------------------------|
|----------------------------------------------------|
|-10-10-10------10------10--9-------9--9----------5--|
|-10-10-10------10------10-10------10-10------3h5----|


   Verse
    $
    E5                              E5
    Gtrs I, II
       PM                   PM    PM       PM----|
||--------------------|----------------------------|
||o-------------------|----------------------------|
||--------------------|----------------------------|
||--------------------|----------------------------|
||o-2--x-2------------|-------------2--------------|
||--0--x-0--0--0-0--0-|-7p5-0-3h5-0-0------0-0-0-0-|


  D5                 G5   G5A5  A5 D5A5
     PM        PM       PM|
|------------------|----------------------||
|------------------|---------------------o||
|------------------|----------------------||
|-7----7-----------|----------------------||
|-5----5-----------|-5----5-/7--7--5h=7--o||
|----x-----7p5-0-5-|-3--0-3-/5--5--5-(5)--||


   Chorus
    E5          F#5 G5
          ~   PM|         ~~~~~~
||----------------|------------------------|
||o---------------|------------------------|
||----------------|------------------------|
||----------------|------------------------|
||o-2--/7-5---2-4-|-5--/9-7-----9-10-----\-|
||--0---------0-2-|-3----------------------|


                         To Coda
  A5             G5    C5   A5
        ~~~~~~
|--------------|--------------------||
|--------------|-------------------o||
|--------------|--------------------||
|--------------|-----5----------7---||
|-7--/7-5---5--|---5-----10---7----o||
|-5------------|-3-----8----5-------||


 Instrumental Break
  E5
  PM---------------|  PM-------------------------|      ~
|-----------------------------|----------------------------|
|-----------------------------|----------------------------|
|-----------------------------|----------------------------|
|-----------------------------|----------------------------|
|-2-2-2--2--2-2--2-2--2-2-2-2-|-2-2-2--2--2-2--2-2---------|
|-0-0-0--0--0-0--0-0--0-0-0-0-|-0-0-0--0--0-0--0-0--3h5-5--|


                                          D.S. al Coda
  E5
  PM---------------|  PM------------------|
|-----------------------------|------------------------|
|-----------------------------|------------------------|
|-----------------------------|------------------------|
|-----------------------------|------------------------|
|-2-2-2--2--2-2--2-2--2-2-2-2-|-2-2-2--2--2-2-------5--|
|-0-0-0--0--0-0--0-0--0-0-0-0-|-0-0-0--0--0-0---3h5----|


 Instrumental Break
  &
  E
  Gtr I
|---------------------------------|---------------------------------|
|---------------------------------|---------------------------------|
|---------------------------------|---------------------------------|
|---------------------------------|---------------------------------|
|-----7-----7-----7-----7-----7h8-|-----7-----7-----7-----7-----7h8-|
|-0-0---0-0---0-0---0-0---0-0-----|-0-0---0-0---0-0---0-0---0-0-----|
|
| Gtr II
|                                   PM
|---------------------------------|---------------------------------|
|---------------------------------|---------------------------------|
|---------------------------------|---------------------------------|
|---------------------------------|---------------------------------|
|-7-------------------------------|-7-------------------------------|
|-0-------------------------------|-0-------------------------------|


  Gtr I
                                                        PM|   PM--|
|---------------------------------|---------------------------------|
|---------------------------------|---------------------------------|
|---------------------------------|---------------------------------|
|---------------------------------|---------------------------------|
|-----7-----7-----7-----7-----7h8-|-----7-----7-----7p5-----5-------|
|-0-0---0-0---0-0---0-0---0-0-----|-0-0---0-0---0-0-----7-6---7-6-5-|
|
| Gtr II
|                                   PM                  PM|   PM--|
|---------------------------------|---------------------------------|
|---------------------------------|---------------------------------|
|---------------------------------|---------------------------------|
|---------------------------------|-----------------7p5-----5-------|
|-7-------------------------------|-7-------------------7-6---7-6-5-|
|-0-------------------------------|-0-------------------------------|


    PM|   PM|   PM|   PM|   PM|         PM|   PM|   PM|     PM|   PM--|
                                     3x
||-----------------------------------||----------------------------------|
||o---------------------------------o||----------------------------------|
||-----------------------------------||----------------------------------|
||-----------------------------------||----------------------------------|
||o-----7-----7-----7-----7-----7h8-o||-----7-----7-----7p5-----5--------|
||--0-0---0-0---0-0---0-0---0-0------||-0-0---0-0---0-0-----7-6---7-6-5--|
|
|   Gtr II
|   PM|   PM|   PM|   PM|   PM|         PM|   PM|   PM|     PM|   PM--|
|                                    3x
||-----------------------------------||----------------------------------|
||o---------------------------------o||----------------------------------|
||-----------------------------------||----------------------------------|
||-----------------------------------||-----------------7p5-----5--------|
||o-----7-----7-----7-----7-----7h8-o||-----7-----7---------7-6---7-6-5--|
||--0-0---0-0---0-0---0-0---0-0------||-0-0---0-0---0-0------------------|


 Bridge
  Gtrs I, II
  PM|     PM|     PM|     PM|       PM|     PM|     PM    PM    PM
|---------------------------------|---------------------------------|
|---------------------------------|---------------------------------|
|---------------------------------|---------------------------------|
|-----2h5-----2h5-----2h5-----2h5-|-----2h5-----2h5---2h5---2h5---4-|
|---------------------------------|---------------------------------|
|-0-0-----0-0-----3-3-----3-3-----|-5-5-----5-5-----3-----5-----3---|


  PM|     PM|     PM|     PM|       PM|     PM|     PM    PM
|---------------------------------|--------------------------------|
|---------------------------------|--------------------------------|
|---------------------------------|--------------------------------|
|-----2h5-----2h5-----2h5-----2h5-|-----2h5-----2h5---2h5---2h5-4--|
|---------------------------------|--------------------------------|
|-0-0-----0-0-----3-3-----3-3-----|-5-5-----5-5-----3-----5--------|


  PM|     PM|     PM|     PM|       PM|     PM|     PM    PM    PM
|---------------------------------|---------------------------------|
|---------------------------------|---------------------------------|
|---------------------------------|---------------------------------|
|-----2h5-----2h5-----2h5-----2h5-|-----2h5-----2h5---2h5---2h5---4-|
|---------------------------------|---------------------------------|
|-0-0-----0-0-----3-3-----3-3-----|-5-5-----5-5-----3-----5-----3---|


  Gtr I
  PM|     PM|     PM|     PM|
|---------------------------------|
|---------------------------------|
|---------------------------------|
|-----2h5-----2h5-----2h5-----2h5-|
|---------------------------------|
|-0-0-----0-0-----3-3-----3-3-----|
|
| Gtr II
| PM|     PM|     PM|     PM|
|---------------------------------|
|---------------------------------|
|---------------------------------|
|-----2h5-----2h5-----2h5-----2h5-|
|---------------------------------|
|-0-0-----0-0-----3-3-----3-3-----|


                                            E5            E
                                                          Gtr III
  PM|     PM|                                  PM
|-----------------------------------------|--------------------------|
|-----------------------------------------|---------------------12---|
|-----------------------------------------|------------------13------|
|-----2h5-----2h5-5p4p2-------------------|---------------14---------|
|-----------------------5p4p2-5p4p2-------|-2--x-2-------------------|
|-5-5-----5-5-----------------------5p3p2-|-0--x-0-------------------|
|
| PM|     PM|                                  PM
|-----------------------------------------|--------------------------|
|-----------------------------------------|--------------------------|
|-----------------------------------------|--------------------------|
|-----2h5-----2h5-5p4p2-------------------|--------------------------|
|-----------------------5p4p2-5p4p2-------|-2--x-2---7tr8------------|
|-5-5-----5-5-----------------------5p3p2-|-0--x-0-------------------|


 Guitar Solo
  E5                     G5
  Gtr III
               ~~~~~~
|------------------------12h15p12----------------|
|-15b17=======15b17===============15p12----------|
|---------------------------------------14p12----|
|---------------------------------------------14-|
|------------------------------------------------|
|------------------------------------------------|
|
| Gtr II
|------------------------------------------------|
|------------------------------------------------|
|------------------------------------------------|
|--9---------------------------------------------|
|--7------5h7--7----------5--------5-------------|
|-------------------------3--------3-------------|


            C5            A5
|------------------------------|
|-12h==14-----10-----12-----10-|
|-12h==14----------------------|
|------------------------------|
|------------------------------|
|------------------------------|
|
|  PM-----|      PM-----|
|------------------------------|
|------------------------------|
|------------------------------|
|-----------5-------------2----|
|--3-3--3-3-3----0-0--0-0-0----|
|------------------------------|


  E5                                             G5
                                                       PM|
|---------9h10h12p10p9-------------------------------------|
|-9h10h12--------------12p10p9-12p10p9---------------------|
|--------------------------------------11p=9h=11-12-12-0-0-|
|----------------------------------------------------------|
|----------------------------------------------------------|
|----------------------------------------------------------|
|
|----------------------------------------------------------|
|----------------------------------------------------------|
|----------------------------------------------------------|
|-9--------------------------------------------------------|
|-7---------------------5h===7-----7--------------5--5-----|
|-------------------------------------------------3--3-----|


            C5            D5
|------------------------------|
|------------------------------|
|-12---14-----11-----12-----7--|
|------------------------------|
|------------------------------|
|------------------------------|
|
|  PM-----|      PM-----|
|------------------------------|
|------------------------------|
|------------------------------|
|-----------5-------------7----|
|--3-3--3-3-3----5-5--5-5-5----|
|------------------------------|


  E5             G5
          ~~~
|------------------------|
|------------------------|
|-9------[9]-------------|
|------------------------|
|------------------------|
|------------------------|
|
|------------------------|
|------------------------|
|------------------------|
|-9----------------------|
|-7--5h7--7------5-5-----|
|----------------3-3-----|


                  C5                              A5
|-------------------------------------------------7h8h10p8p7--------------|
|-----------------7h8h10p8p7-------------7h8h==10------------10p8p7h8h10--|
|-7h9p==7p6h7h==9------------9p7p6h7h==9----------------------------------|
|-------------------------------------------------------------------------|
|-------------------------------------------------------------------------|
|-------------------------------------------------------------------------|
|
| PM----------|                  PM----------|
|-------------------------------------------------------------------------|
|-------------------------------------------------------------------------|
|-------------------------------------------------------------------------|
|-----------------5-------------------------------2-----------------------|
|-3---3---3---3---3--------------0---0---0---0----0-----------------------|
|-------------------------------------------------------------------------|


  E5                      G5
                 \0.5       /
|-7-7-10-10-9-9-------------------|
|---------------10----------------|
|---------------------------------|
|---------------------------------|
|---------------------------------|
|---------------------------------|
|
|---------------------------------|
|---------------------------------|
|---------------------------------|
|-9-------------------------------|
|-7---------5h7--7----------5--5--|
|---------------------------3--3--|


              C5                                             G5
|-------------7h8h10p8p7-------------------------------------------|
|--------8h10------------10p8p7-12p11p==10-10p9p==8---8h==10-------|
|---------------------------------------------------9--------7h8p7-|
|------------------------------------------------------------------|
|------------------------------------------------------------------|
|------------------------------------------------------------------|
|
|   PM-----|                     PM---------------------|
|------------------------------------------------------------------|
|------------------------------------------------------------------|
|------------------------------------------------------------------|
|-------------5----------------------------------------------------|
|---3--3-3--3-3------------------0----0-----0---0---0---0----5-----|
|------------------------------------------------------------3-----|


 Post-Solo Riff
  E5                      E5
|-----------------------|-----------------|
|-----------------------|-----------------|
|-9---------------------|-----------------|
|-----------------------|-----------------|
|-----------------------|-----------------|
|-----------------------|-----------------|
|
|                                         G
|                                  PM--|
|-----------------------|-----------------|
|-----------------------|-----------------|
|-----------------------|-----------------|
|-----------------------|-----------------|
|-2--x------------------|-2--x-2-x-2-2-2--|
|-0--x-5p3-0h3-5p3-5b7--|-0--x-0-x-0-0-0--|


  E5                      E5
|-----------------------|--------------------|
|-----------------------|--------------------|
|-----------------------|--------------------|
|-----------------------|--------------------|
|-----------------------|--------------------|
|-----------------------|--------------------|
|
|trs I, II
|                                    PM----|
|-----------------------|--------------------|
|-----------------------|--------------------|
|-----------------------|--------------------|
|-----------------------|--------------------|
|-2--x------------------|-2--x-2-x-2-2-2-2-2-|
|-0--x-5p3-0h3-5p3-5b7--|-0--x-0-x-0-0-0-0-0-|


  E5                      E5
  Gtrs I, II
                                   PM--|
|-----------------------|-----------------|
|-----------------------|-----------------|
|-----------------------|-----------------|
|-----------------------|-----------------|
|-2--x------------------|-2--x-2-x-2-2-2--|
|-0--x-5p3-0h3-5p3-5b7--|-0--x-0-x-0-0-0--|


  E5                      E5
                                   PM--|
|-----------------------|------------------|
|-----------------------|------------------|
|-----------------------|------------------|
|-----------------------|------------------|
|-2--x------------------|-2--x-2-x-2-2-2---|
|-0--x-5p3-0h3-5p3-5b7--|-0--x-0-x-0-0-0---|


       E5            E5            E5       E5
       PM------------M---|
|-------------|-------------|-------------|----------|------------|--------|
|-------------|-------------|-------------|----------|------------|--------|
|-------------|-------------|-------------|----------|------------|--------|
|-------------|-------------|-------------|-9--------|------------|--------|
|------2-2-2--|------2-2-2--|------2-2-2--|-7--------|------------|--------|
|------0-0-0--|------0-0-0--|------0-0-0--|-0--------|------------|--------|


|-----|
|-----|
|-----|
|-----|
|-----|
|-----|


 Breakdown
  Gtr I
   PM----------------------------------------------
|-------------------------------------------------|
|-------------------------------------------------|
|-------------------------------------------------|
|-------------------------------------------------|
|-------------------------------------------------|
|-13-12-12-12-12-12-12-12-13-12-12-12-13-15-13-12-|


 ----------------------------------------------|
|-------------------------------------------------|
|-------------------------------------------------|
|-------------------------------------------------|
|-------------------------------------------------|
|-------------------------------------------------|
|-13-12-12-12-12-12-12-12-13-12-12-12-13-15-13-12-|


    Gtrs I, II
     PM----------------------------------------------
||--------------------------------------------------|
||o-------------------------------------------------|
||--------------------------------------------------|
||--------------------------------------------------|
||o-------------------------------------------------|
||--13-12-12-12-12-12-12-12-13-12-12-12-13-15-13-12-|


 ----------------------------------------------|
                                                    3x
|---------------------------------------------------||
|--------------------------------------------------o||
|---------------------------------------------------||
|---------------------------------------------------||
|--------------------------------------------------o||
|-13-12-12-12-12-12-12-12-13-12-12-12-13-15-13-12---||


     PM----------------------------------------
||--------------------------------------------|
||o-------------------------------------------|
||--------------------------------------------|
||--------------------------------------------|
||o-------------------------------------------|
||--13-12-0-0-0-0-0-0-13-12-12-12-13-15-13-12-|


 ----------------------------------------|
                                              4x
|---------------------------------------------||
|--------------------------------------------o||
|---------------------------------------------||
|---------------------------------------------||
|--------------------------------------------o||
|-13-12-0-0-0-0-0-0-13-12-12-12-13-15-13-12---||


    Gtr I
     PM-------------------------------------
||-----------------------------------------|
||o----------------------------------------|
||-----------------------------------------|
||-----------------------------------------|
||o----------------------------------------|
||--13-12-0-12-13-0-10-12-0-8-10-0-7-8-5-0-|
|
|   Gtr II
||-----------------------------------------|
||o----------------------------------------|
||-----------------------------------------|
||-----------------------------------------|
||o----------------------------------------|
||-----------------------------------------|


 --------------------------------------|
|------------------------------------------||
|-----------------------------------------o||
|------------------------------------------||
|------------------------------------------||
|-----------------------------------------o||
|-13-12-0-12-13-0-10-12-0-8-10-0-7-8-5-0---||
|
|  PM----------------------------------|
|------------------------------------------||
|-----------------------------------------o||
|------------------------------------------||
|------------------------------------------||
|-13-12-0-12-13-0-10-12-0-8-10-0-7-8-5-0--o||
|------------------------------------------||


 End Chorus
  A5BbG5    F5   E5        E5F#5 G5
  Gtrs I, II
                       ~   PM|         ~~~~~~
|--------------|---------------|------------------------|
|--------------|---------------|------------------------|
|--------------|---------------|------------------------|
|--------------|---------------|------------------------|
|-7-8-5---3-3--|-2--/7-5---2-4-|-5--/9-7-----9-10-----\-|
|-5-6-3---1-1--|-0---------0-2-|-3----------------------|


  C5              D5
         ~~~~~~
|---------------|------------------------|
|---------------|------------------------|
|---------------|------------------------|
|---------------|------------------------|
|-10--10-9---9--|-12--12-9--10-9h10p9-7--|
|--8------------|-10---------------------|


  E5        E5F#5 G5                       A5             G5    C5   A5
        ~   PM|         ~                        ~~~~~~
|---------------|------------------------|--------------|------------------|
|---------------|------------------------|--------------|------------------|
|---------------|------------------------|--------------|------------------|
|---------------|------------------------|--------------|-----5----------7-|
|-2--/7-5---2-4-|-5--/9-7-----9-10-----\-|-7--/7-5---5--|---5-----10---7---|
|-0---------0-2-|-3----------------------|-5------------|-3-----8----5-----|


   Outro
    E                             Dsus2/E
    PM------------------------------------------------------|
||------------------------------|------------------------------|
||o-----------------------------|------------------------------|
||------------------------------|------------------------------|
||------------------------------|------------------------------|
||o-7-7-7--7--7-7--7-7--7-7-7-7-|-5-5-5--5--5-5--5-5--5-5-5-5--|
||--0-0-0--0--0-0--0-0--0-0-0-0-|-0-0-0--0--0-0--0-0--0-0-0-0--|


  C                             E5
  PM---------------------------------------------|      ~
|-----------------------------|-----------------------------||
|-----------------------------|----------------------------o||
|-----------------------------|-----------------------------||
|-----------------------------|-----------------------------||
|-1-1-1--1--1-1--1-1--1-1-1-1-|-2-2-2--2--2-2--2-2---------o||
|-0-0-0--0--0-0--0-0--0-0-0-0-|-0-0-0--0--0-0--0-0--3h5-5---||


  E
|-----------------------------------------|
|-----------------------------------------|
|-----------------------------------------|
|-----------------------------------------|
|-7-7-7-----7-----7-7-----7-7-----7-7-7-7-|
|-0-0-0-----0-----0-0-----0-0-----0-0-0-0-|


  Esus2
|-----------------------------------------|
|-----------------------------------------|
|-----------------------------------------|
|-----------------------------------------|
|-9-9-9-----9-----9-9-----9-9-----9-9-9-9-|
|-0-0-0-----0-----0-0-----0-0-----0-0-0-0-|


  C5
|---------------------------------------------------------|
|---------------------------------------------------------|
|---------------------------------------------------------|
|---------------------------------------------------------|
|-10-10-10------10------10-10------10-10------10-10-10-10-|
|--8--8--8-------8-------8--8-------8--8-------8--8--8--8-|


  G5/D                     D
                                                  ~
|----------------------------------------------------|
|----------------------------------------------------|
|----------------------------------------------------|
|----------------------------------------------------|
|-10-10-10------10------10--9-------9--9-------------|
|-10-10-10------10------10-10------10-10------5h7-7--|


  E
|-----------------------------------------|
|-----------------------------------------|
|-----------------------------------------|
|-----------------------------------------|
|-7-7-7-----7-----7-7-----7-7-----7-7-7-7-|
|-0-0-0-----0-----0-0-----0-0-----0-0-0-0-|


  Esus2
|-----------------------------------------|
|-----------------------------------------|
|-----------------------------------------|
|-----------------------------------------|
|-9-9-9-----9-----9-9-----9-9-----9-9-9-9-|
|-0-0-0-----0-----0-0-----0-0-----0-0-0-0-|


  C5
|---------------------------------------------------------|
|---------------------------------------------------------|
|---------------------------------------------------------|
|---------------------------------------------------------|
|-10-10-10------10------10-10------10-10------10-10-10-10-|
|--8--8--8-------8-------8--8-------8--8-------8--8--8--8-|


  G5/D                     D
                                                  ~
|----------------------------------------------------|
|----------------------------------------------------|
|----------------------------------------------------|
|----------------------------------------------------|
|-10-10-10------10------10--9-------9--9----------5--|
|-10-10-10------10------10-10------10-10------3h5----|


  E5
     PM
|------------*|
|------------*|
|------------*|
|------------*|
|-2--x-2-----*|
|-0--x-0-----*|


Tablature Legend
----------------
 h   - hammer-on
 p   - pull-off
 b   - bend
 pb  - pre-bend
 r   - bend release (if no number after the r, then release immediately)
 /\  - slide into or out of (from/to "nowhere")
 s   - legato slide
 S   - shift slide
<n>  - natural harmonic
[n]  - artificial harmonic
n(n) - tapped harmonic
 ~   - vibrato
 tr  - trill
 T   - tap
 TP  - trem. picking
 PM  - palm muting
\n/  - tremolo bar dip; n = amount to dip
 \n  - tremolo bar down
 n/  - tremolo bar up
/n\  - tremolo bar inverted dip
 =   - hold bend; also acts as connecting device for hammers/pulls
 <>  - volume swell (louder/softer)
 x   - on rhythm slash represents muted slash
 o   - on rhythm slash represents single note slash

Misc Legend
-----------
 |  - bar
||  - double bar
||o - repeat start
o|| - repeat end
*|  - double bar (ending)
 :  - bar (freetime)
 $  - Segno
 &  - Coda

  Visit MetalTabs.com for more metal tablature

bottom separator

Contact Us | Privacy Policy | Disclaimer | Legal Notice
Copyright © 2001-2014 MetalTabs.com. All Rights Reserved.