top separator

Home

Forum

What's New

Submit a Tab

FAQ

Links

Contact Us

Link to Us

MuSpy.com

MetalTabs.com logo

Bands

0-9

A

B

C

D

E

F

G

H

I

J

K

L

M

N

O

P

Q

R

S

T

U

V

W

X

Y

Z

Search

What

Where
 

Whiplash - "Drowning In Torment" Guitar Tab

Plain Text Version
More Whiplash Tabs

Hits: 2948
Updated: 2003-05-11 08:12:19

 

By:

Kramer

sendpm.gif

email.gif

Important note
We did our best to reach Whiplash and ask for their permission to publish this tab. Unfortunately they did not respond to our requests or we could not find a way to contact them. This tab is available online until Whiplash tells us to take it down.


#----------------------------------PLEASE NOTE---------------------------------#
#This file is the author's own work and represents their interpretation of the #
#song. You may only use this file for private study, scholarship, or research. #
#Unless specified otherwise, this is NOT an official tab from the band members.#
#------------------------------------------------------------------------------#

  Visit MetalTabs.com for more metal tablature
  
Whiplash "Drowning in Torment" from TICKET TO MAYHEM (1987)

Tabbed by Nick S. (Kramer)
E-mail: Pantera9560@aol.com (If you send me an E-mail use the name of the band & song
as the subj.)

R.I.P. Tony Bono

Dropped-D tuning

Riff 1A 7x
A-2-2--1-2---------------
E-2-2------0-3-2-0-2-2---

Riff 1B 3x
A-2-2--1-2-----------------------
E-2-2------0-3-2-0-2--88776655---

3rd time end w/
A------------------2---
E-8877665544332211-2---

Riff 2 3x
D---------------------------------------------3---------------------------------------
A-3--0h2--2-2-2-2---3--0h2--2-2-2-2---3--0h2--1---3--0h2--2-2-2-2---3--0h2--2-2-2-2---
E-3--0h2--2-2-2-2---3--0h2--2-2-2-2---3--0h2------3--0h2--2-2-2-2---3--0h2--2-2-2-2---

D---------------------------3--2---------------------
A-3--0h2--2-2-2-2---3--0h2--1--0---3--0h2--2-2-2-2---
E-3--0h2--2-2-2-2---3--0h2---------3--0h2--2-2-2-2---

Riff 3 4x
A-222233332222-----------
E---------------4-3-2-0--

Riff 2 3x
Riff 3 4x

Riff 4 5x then play the first part of the riff once
D-9-0-7-0-5-0-4-0--99999999--------------------------10--99999999--
A---------------------------------------0--2--3--0-----------------
E------------------------------2--5--4-----------------------------

Riff 1A 6x

Riff 5A twice
A-8-8-7-8------7-7-6-7------6-6-5-6-----2-2-1-2---
after 2nd time strum palm-muted E5 chord

Riff 5B 6x
A-8-8-7-8--0h2--2-2-2-2---7-7-6-7--0h2--2-2-2-2---6-6-5-6--0h2--2-2-2-2---2-2-1-2--
E----------0h2--2-2-2-2------------0h2--2-2-2-2------------0h2--2-2-2-2------------

A-0h2--2-2-2-2---
E-0h2--2-2-2-2---

Riff 3 4x
Riff 1A 14x (Start playing it faster the 8th time)
Riff 5B once then end w/
A-2-2-1-2--
E-2-2-1-2--

  Visit MetalTabs.com for more metal tablature

bottom separator

Contact Us | Privacy Policy | Disclaimer | Legal Notice
Copyright © 2001-2014 MetalTabs.com. All Rights Reserved.