top separator

Home

Forum

What's New

Submit a Tab

FAQ

Links

Contact Us

Link to Us

MetalTabs.com logo

Bands

0-9

A

B

C

D

E

F

G

H

I

J

K

L

M

N

O

P

Q

R

S

T

U

V

W

X

Y

Z

Search

What

Where
 

Severe Torture - "Mutilation Of The Flesh" Guitar Tab

Plain Text Version
More Severe Torture Tabs

Hits: 6926
Rated: 5.00 out of 5 (5 votes)
Updated: 2003-04-27 19:32:00

 

Important note
This tab is available online because we obtained explicit permission from Severe Torture or their label.


#----------------------------------PLEASE NOTE---------------------------------#
#This file is the author's own work and represents their interpretation of the #
#song. You may only use this file for private study, scholarship, or research. #
#Unless specified otherwise, this is NOT an official tab from the band members.#
#------------------------------------------------------------------------------#

  Visit MetalTabs.com for more metal tablature
  
Band: Severe Torture
Album: Misanthropic Carnage
Song: Mutilation of the Flesh

Copyright (c) Hammerheart Records 2002
Version 1.0 - 02/03/03

Transcribed By: Adam Wolf
Email: ilovebukkake@hotmail.com

.  - palm mute           /  - slide up to
\  - slide down to       ~  - vibrato
h  - hammer on           b  - Bend
p  - pull off            Suffixes for bend
t  - tap                 f  - full bend    h - half bend
ph - pinched harmonic    q  - quarter bend t - tap bend
*  - see comment         ^  - Hold bend    r release bend
x  - Stuccatto           ~  - vibrato bend
,  - slight palm mute    () - ghost note, sustained note
"  - tremolo note        <> - Trill

Tuning D G C F A D

Main Riff
------------------------------------------------------------------------------
------------------------------------------------------------------------------
-----------------2-------5----------------------------------------------------
---------4-3-4-------1--------4\----------------------------------------------
------------------------------------------------------------------------------
-1---2-1----------------------------------------------------------------------
 """""""""""""""""""""""""""""""

Main Fill
------------------------------------------------------------------------------
------------------------------------------------------------------------------
------------------------------------------------------------------------------
------------------------------------------------------------------------------
------------------------------------------------------------------------------
-4-3-0-6-4-0-4-3--------------------------------------------------------------
 . . . . . . . .

Main Fill2
------------------------------------------------------------------------------
------------------------------------------------------------------------------
------------------------------------------------------------------------------
------------------------------------------------------------------------------
------------------------------------------------------------------------------
-7-6-0-9-7-0-7-6--------------------------------------------------------------
 . . . . . . . .

Verse Riff
 x3                        x1
-------------------------|----------------------------------------------------
-------------------------|----------------------------------------------------
-------------------------|----------------------------------------------------
-------------------6-----|-------------6---6-9-5------------------------------
-------------6-3-6---7-4-|-------7-4-7---7-------7----------------------------
-1-----4-1-4-------------|-4--------------------------------------------------
 """""". . . . . . . . .   """""". . . . . . . . .

Refrain Riff
------------------------------------------------------------------------------
------------------------------------------------------------------------------
------------------------------------------------------------------------------
-2-----------2-----------2----------------------------------------------------
-2-----------2-----------2-------------4--------------------------------------
-0---3-6-4-7-0---3-6-4-7-0---3-6-4-7-4---7-0-4-7------------------------------
     . . . .     . . . .     . . . . . . . . . .

Refrain Fill
------------------------------------------------------------------------------
------------------------------------------------------------------------------
------------------------------------------------------------------------------
-2----------------------------------------------------------------------------
-2----------------------------------------------------------------------------
-0---3-6-4-7------------------------------------------------------------------
     . . . .

Fast Riff
------------------------------------------------------------------------------
------------------------------------------------------------------------------
------------------------------------------------------------------------------
-----------------4-----------4------------------------------------------------
-7-----3-6-4-7-6-------4-7-6---7----------------------------------------------
---0-4-------------3-6--------------------------------------------------------
 """"""""""""""""""""""""""""""""

Fast Fill
------------------------------------------------------------------------------
------------------------------------------------------------------------------
------------------------------------------------------------------------------
---------------4--------------------------------------------------------------
---6---6---7------------------------------------------------------------------
-4---4---4---4----------------------------------------------------------------
 .   .   .   .

Song order
-------------

Main Riff x4
Main Fill x1
Main Riff x4
Main Fill x4
Main Riff x4
Main Fill x2
Main Fill2 x2 (only for right guitar)
Verse Riff x4
Refrain Riff x4
Refrain Fill x2
Refrain Riff x4
Verse Riff x2
Refrain Riff x4
Refrain Fill x8
Fast Riff x8
Fast Fill x4
Fast Riff x4
Fast Fill x4
Main Riff x4
Main Fill x1
Main Riff x4
Main Fill x2
Main Fill2 x2 (only for right guitar)
Main Riff x4
Main Fill x2

  Visit MetalTabs.com for more metal tablature

bottom separator

Contact Us | Privacy Policy | Disclaimer | Legal Notice
Copyright © 2001-2014 MetalTabs.com. All Rights Reserved.