top separator

Home

Forum

FAQ

Contact Us

Link to Us

MetalTabs.com logo

Bands

0-9

A

B

C

D

E

F

G

H

I

J

K

L

M

N

O

P

Q

R

S

T

U

V

W

X

Y

Z

Hate Eternal - "Servants Of The Gods" Guitar Tab

Plain Text Version
More Hate Eternal Tabs

Hits: 7103
Rated: 3.56 out of 5 (9 votes)
Updated: 2003-04-27 19:29:15


#----------------------------------PLEASE NOTE---------------------------------#
#This file is the author's own work and represents their interpretation of the #
#song. You may only use this file for private study, scholarship, or research. #
#Unless specified otherwise, this is NOT an official tab from the band members.#
#------------------------------------------------------------------------------#

  Visit MetalTabs.com for more metal tablature
  
Band:  HATE ETERNAL
Album: KING OF ALL KINGS
Song:  SERVANTS OF THE GODS

Copyright (c)  2002
Version 1.0 - 2003

Transcribed By: CHRIS
Email: Rigamortus666@hotmail.com

Gettin upset now cause i dont see any King of all king tabs out yet,
so decided to make one for you hate eternal fans out there. If i fucked
up email me and send me corrections. Pretty much all of it is right, youll
find some parts wrong tho. Have fun fuckers :)



.  - palm mute           /  - slide up to
\  - slide down to       ~  - vibrato
h  - hammer on           b  - Bend
p  - pull off            Suffixes for bend
t  - tap                 f  - full bend    h - half bend
ph - pinched harmonic    q  - quarter bend t - tap bend
*  - see comment         ^  - Hold bend    r release bend
x  - Stuccatto           ~  - vibrato bend
,  - slight palm mute    () - ghost note, sustained note
"  - tremolo note        <> - Trill

Tunning Bb (2.5 steps)

[Rhy.Fig.1]
|--------------------------------------------------------------------|
|--------------------------------------------------------------------|
|---------------------8"4"------------------------------------------|[Gtr.1]
|--------6"--6"--9"----------------5"-----5"----5"6"-------6"----6"|
|-----6"---6"-------------------6"-----6"-----6"----------6"----6"---|
|--4"-----------------------3"-------------------------4"------------|
|                                                                    |
|--------------------------------------------------------------------|
|--------------------------------------------------------------------|
|--------------------------------------------------------------------|[Gtr.2]
|--------------------------------------------------------------------|
|--------------------666----555----777----666-------------------5"-7"|
|--4"-3"-44-7"-6"-4"-----3"-----4"-----4"-----4"-3"-44-7"-6"-4"------|


[Rhy.Fig.1 cont..]
|--------------------------------------------------------------------|
|--------------------------------------------------------------------|
|-----8"-4"6"-4"-3"-4"-6"-4"-7"-8"----------------------------------|[Gtr.1]
|--9"----------------------------------------------------------------|
|--------------------------------------------------------------------|
|--------------------------------------------------------------------|
|                                                                    |
|--------------------------------------------------------------------|
|--------------------------------------------------------------------|
|--------------------------------------------------------------------|[Gtr.2]
|--------------------------------------------------------------------|
|--6"----7"-9"-8"----------------------------------------------------|
|-----6"-------------------------------------------------------------|

[Rhy.Fig.2]
|--------------------------------------------------------------------|
|--------------------------------------------------------------------|
|--------------------------------------------------------------------|[Gtr.1]
|----6-6-6-6-6-6-6-6---5-5-5-5-5-5-5-5---6-6-6-6-6-6-6-6---5-5-5-5---|
|--7-----------------6-----------------6-----------------6-----------|
|--------------------------------------------------------------------|

|--------------------------------------------------------------------|
|--------------------------------------------------------------------|
|--------------------------------------------------------------------|[Gtr.2]
|--------------------------------------------------------------------|
|----2-------------2---1-----------------2-------------2---1---------|
|--4-------------4---3-----------------4-------------4---3-----------|

[Rhy.Fig.2 cont..]
|--------------------------------------------------------------------|
|--------------------------------------------------------------------|
|--------------------------------------------------------------------|[Gtr.1]
|----8-8----9-9------------------------------------------------------|
|--9-----10----------------------------------------------------------|
|--------------------------------------------------------------------|

|--------------------------------------------------------------------|
|--------------------------------------------------------------------|
|--------------------------------------------------------------------|[Gtr.2]
|--------------------------------------------------------------------|
|----4------5--------------------------------------------------------|
|--6------7----------------------------------------------------------|
Fig.3        x2
|---------------------|----------------------------------------------|
|---------------------|----------------------------------------------|
|---------------------|----------------------------------------------|[Gtr.1]
|---------------------|----------------------------------------------|
|----9-91010-9-9------|--8-8-9-9-8-8------8-8-9-9-8-8----------------|
|----7-7-8-8-7-7-11-10|--6-6-7-7-6-6-10-9-6-6-7-7-6-6-10-6h9---------|
P.M  . . . . . .         . . . . . .      . . . . . .
Fig.3        x2
|---------------------|----------------------------------------------|
|---------------------|----------------------------------------------|
|---------------------|----------------------------------------------|[Gtr.2]
|---------------------|----------------------------------------------|
|----6-6-7-7-6-6------|--5-5-6-6-5-5-------5-5-6-6-5-5---------------|
|----4-4-5-5-4-4--8-7-|--3-3-4-4-3-3--7-6--3-3-4-4-3-3--7-3h6--------|
P.M  . . . . . .         . . . . . .       . . . . . .
|--------------------------------------------------------------------|
|--------------------------------------------------------------------|
|-------------------------------?------------------------------------|[Gtr.3]
|-------------------------SOLO---------------------------------------|
|--------------------------------------------------------------------|
|--------------------------------------------------------------------|
Fig.4    x2              x2                  x2               x2   UNDER SOLO
|----------------|-----------------|-----------------|---------------|
|----------------|-----------------|-----------------|---------------|
|----------------|-----------------|-----------------|---------------|[Gtr.1]
|----------------|-----------------|-----------------|---------------|
|----------------|-----------------|-----------------|---------------|
|-4"-3"-44-7"11"-|-3"-2"-33-7"11"--|-8"-7"-88-11"15" |7"-6"-77-10"14-|
        x2                   x2                  x2                 x2
|----------------|-----------------|-----------------|---------------|
|----------------|-----------------|-----------------|---------------|
|----------------|-----------------|-----------------|---------------|[Gtr.2]
|----------------|-----------------|-----------------|---------------|
|----------------|-----------------|-----------------|---------------|
|-4"-3"-44-5"-4"-|-3"-2"-33-4"-3"--|--5"-4"-55-6"-5"-|-4"-3"-44-5"-4"|

Fig.5                                     x2
|--------------------------------------------------------------------|
|--------------------------------------------------------------------|
|--------------------------------------------------------------------|[Gtr.1]
|--------------------------------------------------------------------|
|--------------------------------------------------------------------|
|--4-8-3---3-7--4-8-3-7-8---7-5--------------------------------------|

|--------------------------------------------------------------------|
|--------------------------------------------------------------------|
|--------------------------------------------------------------------|[Gtr.2]
|--------------------------------------------------------------------|
|--------------------------------------------------------------------|
|--8-4-7---7-3---8-5-7-4-4/11--10-8----------------------------------|

Fig.6  x2            x2            x2            x2
|-------------|-------------|-------------|--------------------------|
|-------------|-------------|-------------|--------------------------|
|-------------|-------------|-------------|--------------------------|[Gtr.1]
|-------------|-------------|-------------|--------------------------|
|----2------2-|----1------1-|----4------4-|----3------3--------------|
|--4---4-33---|--3---3-22---|--6---6-55---|--5---5-44----------------|

     x2              x2
|--------------|-----------------------------------------------------|
|--------------|-----------------------------------------------------|
|--------------|-----------------------------------------------------|[Gtr.2]
|-----3------3-|----2------2-----------------------------------------|
|---6-5-6-55-5-|--3-4-3-22-4-----------------------------------------|
|---4---4-33---|--5---5-44-------------------------------------------|
P.M

PLAY
Fig 1
Fig 2
Fig 1
Fig 2
Fig 3(x2)
SOLO
Fig 4 (under solo)
Fig 3(x2)
Fig 5
SOLO
Fig 1 (under solo)
Fig 6

  Visit MetalTabs.com for more metal tablature

bottom separator

Contact Us | Privacy Policy | Disclaimer
Copyright © 2001-2014 MetalTabs.com. All Rights Reserved.