top separator

Home

Forum

What's New

Submit a Tab

FAQ

Links

Contact Us

Link to Us

MuSpy.com

MetalTabs.com logo

Bands

0-9

A

B

C

D

E

F

G

H

I

J

K

L

M

N

O

P

Q

R

S

T

U

V

W

X

Y

Z

Search

What

Where
 

Nostradameus - "Murder" Guitar Tab

Plain Text Version
More Nostradameus Tabs

Hits: 4110
Rated: 3.67 out of 5 (3 votes)
Updated: 2003-04-27 19:26:04

 

Important note
This tab is available online because we obtained explicit permission from Nostradameus or their label.


#----------------------------------PLEASE NOTE---------------------------------#
#This file is the author's own work and represents their interpretation of the #
#song. You may only use this file for private study, scholarship, or research. #
#Unless specified otherwise, this is NOT an official tab from the band members.#
#------------------------------------------------------------------------------#

  Visit MetalTabs.com for more metal tablature
  
Artist - Nostradameus
Title - Murder
Album - The Prophet Of Evil
Transcribed by Marcelo Hiller ( 38674698 )

Tab Notation:

B - Bend
H - Hammer On
P - Pull Off
* - Pickslide
/ - Slide Up
\ - Slide Down
| - Interrupt
BD - Bend Down With Bar
BU - Bend Up With Bar
AH - Artificial Harmonic

Standard Tunning

00:00 Both Guitars
e-|-------------------------------------------------------------------------------------|
B-|-------------------------------------------------------------------------------------|
G-|-------------------------------------------------------------------------------------|
D-|-2--------------------4--------------------7--------------------9--------------------|
A-|-2--------------------6--------------------7--------------------9--------------------|
E-|----0-0-0--0-0-0--0-0----0-0-0--0-0-0--0-0----0-0-0--0-0-0--0-0----0-0-0--0-0-0--0-0-|



00:06 Both Guitars
e-|--------------------------------------------------------------------------------------------|
B-|--------------------------------------------------------------------------------------------|
G-|--------------------------------------------------------------------------------------------|
D-|-2----------------------4----------------------7----------------------4---------------------|
A-|-2----------------------6----------------------7----------------------5---------------------|
E-|----0-0-0-0-0-0-0-0-0-0----0-0-0-0-0-0-0-0-0-0----0-0-0-0-0-0-0-0-0-0----0-0-0-0-0-0-0-0-0-0|



00:13 Guitar 1
e-|------------------------------------------------------------------------------------------------|
B-|------------------------------------------------------------------------------------------------|
G-|------------------------------------------------------------------------------------------------|
D-|-------------------------------------------------5H7--5H7---------------------------------5---7-|
A-|-5H7-----------------------------5H7-------------5----5----5H7----------------------------3---5-|
E-|-----0-0-0-0-0-0-0-0-0-0-0-0-0-0-----0-0-0-0-0-0--------------0-0-0-0-0-0-0-0-0-0-0-0-0-0-------|
      Guitar 2
e-|------------------------------------------------------------------------------------------------|
B-|------------------------------------------------------------------------------------------------|
G-|------------------------------------------------------------------------------------------------|
D-|-------------------------------------------------5H7--5H7----------------------------------SOLO-|
A-|-5H7-----------------------------5H7-----------------------5H7----------------------------------|
E-|-----0-0-0-0-0-0-0-0-0-0-0-0-0-0-----0-0-0-0-0-0--------------0-0-0-0-0-0-0-0-0-0-0-0-0-0-------|



00:20 Guitar 1
e-|------------------------------------------------------------------------------------------------|
B-|------------------------------------------------------------------------------------------------|
G-|------------------------------------------------------------------------------------------------|
D-|-------------------------------------------------5H7--5H7---------------------------------5---7-|
A-|-5H7-----------------------------5H7-------------5----5----5H7----------------------------3---5-|
E-|-----0-0-0-0-0-0-0-0-0-0-0-0-0-0-----0-0-0-0-0-0--------------0-0-0-0-0-0-0-0-0-0-0-0-0-0-------|
      Guitar 2
e-|------------------------------------------------------------------------------------------------|
B-|------------------------------------------------------------------------------------------------|
G-|------------------------------------------------------------------------------------------------|
D-|-7H9-----------------------------7H9-------------5H7--5H7-7H9------------------------------SOLO-|
A-|------------------------------------------------------------------------------------------------|
E-|-----0-0-0-0-0-0-0-0-0-0-0-0-0-0-----0-0-0-0-0-0--------------0-0-0-0-0-0-0-0-0-0-0-0-0-0-------|



00:27 Guitar 1
e-|--------------------------------------------------------------------------------------------|
B-|--------------------------------------------------------------------------------------------|
G-|--------------------------------------------------------------------------------------------|
D-|--------------------------------------------------------------------------------------------|
A-|-2|--------------------------------4------5------3|--------------------------------4------5-|
E-|-0|--------------------------------2------3------1|--------------------------------2------3-|
      Guitar 2
e-|-----------------------------------------------|-----------------------------------19\------|
B-|-----------------------------------------------|--------------------------------------------|
G-|---5-5-4-4---5-5-4---5---5-5-4-4---------2-2-4-|---6-6-5-5---6-6-5---6---6-6-5-5------------|
D-|-2---------2-------2---2---------2-4-4-5-------|-3---------3-------3---3---------3----------|
A-|-----------------------------------------------|--------------------------------------------|
E-|-----------------------------------------------|--------------------------------------------|



00:34 Guitar 1
e-|-----------------------------------------------|-----------------------------------------------|
B-|-----------------------------------------------|-----------------------------------------------|
G-|-----------------------------------------------|-----------------------------------------------|
D-|-----------------------------------------------|-----------------------------------------------|
A-|-2--2--2--2-2-2--2--2-2-2--2-2-2--2--2-2--4--5-|-3--3--3--3-3-3--3--3-3-3--3-3-3--3--3-3--4--5-|
E-|-0--0--0--0-0-0--0--0-0-0--0-0-0--0--0-0--2--3-|-1--1--1--1-1-1--1--1-1-1--1-1-1--1--1-1--2--3-|
      Guitar 2
e-|-----------------------------------------------|-----------------------------------------------|
B-|-----------------------------------------------|-----------------------------------------------|
G-|---5-5-4-4---5-5-4---5---5-5-4-4---------2-2-4-|---6-6-5-5---6-6-5AH-6---6-6-5-5---------3-3-5-|
D-|-2---------2-------2---2---------2-4-4-5-------|-3---------3-----------3---------3-5-5-6-------|
A-|-----------------------------------------------|-----------------------------------------------|
E-|-----------------------------------------------|-----------------------------------------------|



00:41 Guitar 1
e-|---------------------------------|----------------------------------|
B-|---------------------------------|-----------------------------/5-8-|
G-|---------------------------------|----------------------------------|
D-|-4-------------------------------|-5--------------------------------|
A-|-2-------------------------------|-3--------------------------------|
E-|-0-------------------------------|-1--------------------------------|
      Guitar 2
e-|---------------------------------|----------------------------------|
B-|---------------------------------|----------------------------------|
G-|---------------------------------|-----------------------------/9---|
D-|---5-4---5-4---5---5-4-------2-4-|---6-5---6-5---6---6-5----------9-|
A-|-2-----2-----2---2-----2-4-5-----|-3-----3-----3---3-----3-5-6------|
E-|---------------------------------|----------------------------------|



00:48 Guitar 1
e-|---------------------------------|----------------------------------|
B-|---------------------------------|-----------------------------/5-8-|
G-|---------------------------------|----------------------------------|
D-|-4-------------------------------|-5--5--5--5-----------------------|
A-|-2-------------------------------|-3--3--3--3-----------------------|
E-|-0-------------------------------|-1--------1-----------------------|
      Guitar 2
e-|---------------------------------|----------------------------------|
B-|---------------------------------|----------------------------------|
G-|---------------------------------|-----------------------------/9---|
D-|---5-4---5-4---5---5-4-------2-4-|---6-5---6-5---6---6-5----------9-|
A-|-2-----2-----2---2-----2-4-5-----|-3-----3-----3---3-----3-5-6------|
E-|---------------------------------|----------------------------------|



00:54 Guitar 1
e-|-----------------------------------------------|-----------------------------------------------|
B-|-----------------------------------------------|-----------------------------------------------|
G-|-----------------------------------------------|-----------------------------------------------|
D-|-----------------------------------------------|-----------------------------------------------|
A-|---3-3-2-2---3-3-2---3---3-3-2-2---------0-0-2-|---4-4-3-3---4-4-3---4---4-4-3-3---------1-1-3-|
E-|-0---------0-------0---0---------0-2-2-3-------|-1---------1------1---1---------1-3-3-4--------|
      Guitar 2
e-|-----------------------------------------------|-----------------------------------------------|
B-|-----------------------------------------------|-----------------------------------------------|
G-|---5-5-4-4---5-5-4---5---5-5-4-4---------2-2-4-|---6-6-5-5---6-6-5---6---6-6-5-5---------3-3-5-|
D-|-2---------2-------2---2---------2-4-4-5-------|-3---------3-------3---3---------3-5-5-6-------|
A-|-----------------------------------------------|-----------------------------------------------|
E-|-----------------------------------------------|-----------------------------------------------|



01:01 Guitar 1
e-|----------------------------------------------|-----------------------------------------------|
B-|----------------------------------------------|-----------------------------------------------|
G-|----------------------------------------------|-----------------------------------------------|
D-|----------------------------------------------|-----------------------------------------------|
A-|-7-7-7-7|-7-7-7-7|-7-7|-7-7-7-7|-7-7-7-7|-7-7-|---8-8-7-7---8-8-7---8---8-8-7-7---------5-5-7-|
E-|-5-5-5-5|-5-5-5-5|-5-5|-5-5-5-5|-5-5-5-5|-5-5-|-5---------5-------5---5---------5-7-7-8-------|
      Guitar 2
e-|----------------------------------------------|-----------------------------------------------|
B-|----------------------------------------------|-----------------------------------------------|
G-|----------------------------------------------|-----------------------------------------------|
D-|----------------------------------------------|-----------------------------------------------|
A-|-7-7-7-7|-7-7-7-7|-7-7|-7-7-7-7|-7-7-7-7|-7-7-|---8-8-7-7---8-8-7---8---8-8-7-7---------5-5-7-|
E-|-5-5-5-5|-5-5-5-5|-5-5|-5-5-5-5|-5-5-5-5|-5-5-|-5---------5-------5---5---------5-7-7-8-------|



01:08 Guitar 1
e-|-13-12-13-10-13-8-13----13----13---13----13----13-|
B-|---------------------12----10----9----10----12----|
G-|--------------------------------------------------|
D-|--------------------------------------------------|
A-|--------------------------------------------------|
E-|--------------------------------------------------|
      Guitar 2
e-|--------------------------------------------------|
B-|--------------------------------------------------|
G-|--------------------------------------------------|
D-|--------------------------------------------------|
A-|-7------------------------------------------------|
E-|-5------------------------------------------*****-|



01:12 Guitar 1
e-|-------------------------------------------------------------------|
B-|-------------------------------------------------------------------|
G-|-------------------------------------------------------------------|
D-|-------------------------------------------------------------------|
A-|-7------------------------5-------3--------------------------------|
E-|-5------------------------3-------1--------------------------------|
      Guitar 2
e-|-8-0-0-0-7-0-0-0-10-0-0-0-8-0-0-0-7-0-0-0-10-0-0-0-8-0-0-0-7-0-0-0-|
B-|-------------------------------------------------------------------|
G-|-------------------------------------------------------------------|
D-|-------------------------------------------------------------------|
A-|-------------------------------------------------------------------|
E-|-------------------------------------------------------------------|



01:15 Guitar 1
e-|--------------------------------------------------|---------|
B-|--------------------------------------------------|---------|
G-|--------------------------------------------------|---------|
D-|--------------------------------------------------|---------|
A-|-5--------------------------------2---------------|-2--3--5-|
E-|-3--------------------------------0---------------|-0--1--3-|
      Guitar 2
e-|-10-0-0-0-8-0-0-0-7-0-0-0-5-0-0-0-7-0-0-0-8-0-0-0-|---------|
B-|--------------------------------------------------|---------|
G-|--------------------------------------------------|---------|
D-|--------------------------------------------------|---------|
A-|--------------------------------------------------|-2--3--5-|
E-|--------------------------------------------------|-0--1--3-|



01:18 Guitar 1
e-|-------------------------------------------------------------------|
B-|-------------------------------------------------------------------|
G-|-------------------------------------------------------------------|
D-|-------------------------------------------------------------------|
A-|-7------------------------5-------3--------------------------------|
E-|-5------------------------3-------1--------------------------------|
      Guitar 2
e-|-8-0-0-0-7-0-0-0-10-0-0-0-8-0-0-0-7-0-0-0-10-0-0-0-8-0-0-0-7-0-0-0-|
B-|-------------------------------------------------------------------|
G-|-------------------------------------------------------------------|
D-|-------------------------------------------------------------------|
A-|-------------------------------------------------------------------|
E-|-------------------------------------------------------------------|



01:22 Guitar 1
e-|------------------------------------|----------------|
B-|------------------------------------|----------------|
G-|------------------------------------|----------------|
D-|-7----------------------------------|---5-5----7-5-4-|
A-|-5----------------------------------|---3-3----5-3-2-|
E-|------------------------------------|-0------0-------|
      Guitar 2
e-|-13-0-0-0-12-0-0-0-10-0-0-0-8-0-0-0-|----------------|
B-|------------------------------------|----------------|
G-|------------------------------------|----------------|
D-|------------------------------------|---5-5----7-5-4-|
A-|------------------------------------|---3-3----5-3-2-|
E-|------------------------------------|-0------0-------|



01:25 Guitar 1
e-|-------------------------------------------------------------------|
B-|-------------------------------------------------------------------|
G-|-------------------------------------------------------------------|
D-|-------------------------------------------------------------------|
A-|-7------------------------5-------3--------------------------------|
E-|-5------------------------3-------1--------------------------------|
      Guitar 2
e-|-8-0-0-0-7-0-0-0-10-0-0-0-8-0-0-0-7-0-0-0-10-0-0-0-8-0-0-0-7-0-0-0-|
B-|-------------------------------------------------------------------|
G-|-------------------------------------------------------------------|
D-|-------------------------------------------------------------------|
A-|-------------------------------------------------------------------|
E-|-------------------------------------------------------------------|



01:29 Guitar 1
e-|--------------------------------------------------|---------|
B-|--------------------------------------------------|---------|
G-|--------------------------------------------------|---------|
D-|--------------------------------------------------|---------|
A-|-5--------------------------------2---------------|-2--3--5-|
E-|-3--------------------------------0---------------|-0--1--3-|
      Guitar 2
e-|-10-0-0-0-8-0-0-0-7-0-0-0-5-0-0-0-7-0-0-0-8-0-0-0-|---------|
B-|--------------------------------------------------|---------|
G-|--------------------------------------------------|---------|
D-|--------------------------------------------------|---------|
A-|--------------------------------------------------|-2--3--5-|
E-|--------------------------------------------------|-0--1--3-|



01:32 Guitar 1
e-|-------------------------------------------------------------------|
B-|-------------------------------------------------------------------|
G-|-------------------------------------------------------------------|
D-|-------------------------------------------------------------------|
A-|-7------------------------5-------3--------------------------------|
E-|-5------------------------3-------1--------------------------------|
      Guitar 2
e-|-8-0-0-0-7-0-0-0-10-0-0-0-8-0-0-0-7-0-0-0-10-0-0-0-8-0-0-0-7-0-0-0-|
B-|-------------------------------------------------------------------|
G-|-------------------------------------------------------------------|
D-|-------------------------------------------------------------------|
A-|-------------------------------------------------------------------|
E-|-------------------------------------------------------------------|



01:35 Guitar 1
e-|------------------------------------|----------------|
B-|------------------------------------|----------------|
G-|------------------------------------|----------------|
D-|-7----------------------------------|---5-5----7-5-4-|
A-|-5----------------------------------|---3-3----5-3-2-|
E-|------------------------------------|-0------0-------|
      Guitar 2
e-|-13-0-0-0-12-0-0-0-10-0-0-0-8-0-0-0-|----------------|
B-|------------------------------------|----------------|
G-|------------------------------------|----------------|
D-|------------------------------------|---5-5----7-5-4-|
A-|------------------------------------|---3-3----5-3-2-|
E-|------------------------------------|-0------0-------|



01:39 Both Guitars
e-|-----------------------------------------------------------------------------------------|
B-|-----------------------------------------------------------------------------------------|
G-|-----------------------------------------------------------------------------------------|
D-|-2--------------------4--------------------7--------------------9------------------------|
A-|-2--------------------6--------------------7--------------------9------------------------|
E-|----0-0-0--0-0-0--0-0----0-0-0--0-0-0--0-0----0-0-0--0-0-0--0-0----0-0-0-0-0-0-0-0-0-0-0-|



01:46 Both Guitars
e-|-------------------------------------------------------------------------------------------|
B-|-------------------------------------------------------------------------------------------|
G-|-------------------------------------------------------------------------------------------|
D-|-2---------------------4----------------------7----------------------4---------------------|
A-|-2---------------------6----------------------7----------------------5---------------------|
E-|---0-0-0-0-0-0-0-0-0-0----0-0-0-0-0-0-0-0-0-0----0-0-0-0-0-0-0-0-0-0----0-0-0-0-0-0-0-0-0-0|



01:53 Guitar 1
e-|---------------------------------|---------------------------------------|
B-|---------------------------------|-----------------------------/5-8-/9b--|
G-|---------------------------------|---------------------------------------|
D-|-4-------------------------------|-5-------------------------------------|
A-|-2-------------------------------|-3-------------------------------------|
E-|-0-------------------------------|-1-------------------------------------|
      Guitar 2
e-|---------------------------------|---------------------------------------|
B-|---------------------------------|---------------------------------------|
G-|---------------------------------|-----------------------------/9---/10b-|
D-|---5-4---5-4---5---5-4-------2-4-|---6-5---6-5---6---6-5----------9------|
A-|-2-----2-----2---2-----2-4-5-----|-3-----3-----3---3-----3-5-6-----------|
E-|---------------------------------|---------------------------------------|



02:00 Guitar 1
e-|-----------------------------|----------------------------------|
B-|-----------------------------|-----------------------------/5-8-|
G-|-----------------------------|----------------------------------|
D-|-4---------------------------|-5--5--5--5-----------------------|
A-|-2---------------------------|-3--3--3--3-----------------------|
E-|-0---------------------------|-1--------1-----------------------|
      Guitar 2
e-|-----------------------------|----------------------------------|
B-|-----------------------------|----------------------------------|
G-|-----------------------------|-----------------------------/9---|
D-|---5-4---5-4---5-4-------2-4-|---6-5---6-5---6---6-5----------9-|
A-|-2-----2-----2-----2-4-5-----|-3-----3-----3---3-----3-5-6------|
E-|-----------------------------|----------------------------------|



02:07 Guitar 1
e-|-----------------------------------------------|-----------------------------------------------|
B-|-----------------------------------------------|-----------------------------------------------|
G-|-----------------------------------------------|-----------------------------------------------|
D-|-----------------------------------------------|-----------------------------------------------|
A-|---3-3-2-2---3-3-2---3---3-3-2-2---------0-0-2-|---4-4-3-3---4-4-3---4---4-4-3-3---------1-1-3-|
E-|-0---------0-------0---0---------0-2-2-3-------|-1---------1------1---1---------1-3-3-4--------|
      Guitar 2
e-|-----------------------------------------------|-----------------------------------------------|
B-|-----------------------------------------------|-----------------------------------------------|
G-|---5-5-4-4---5-5-4---5---5-5-4-4---------2-2-4-|---6-6-5-5---6-6-5---6---6-6-5-5---------3-3-5-|
D-|-2---------2-------2---2---------2-4-4-5-------|-3---------3-------3---3---------3-5-5-6-------|
A-|-----------------------------------------------|-----------------------------------------------|
E-|-----------------------------------------------|-----------------------------------------------|



02:13 Guitar 1
e-|----------------------------------------------|-----------15BD--------------------------------|
B-|----------------------------------------------|-----------21BD--------------------------------|
G-|----------------------------------------------|-----------------------------------------------|
D-|----------------------------------------------|-----------------------------------------------|
A-|-7-7-7-7|-7-7-7-7|-7-7|-7-7-7-7|-7-7-7-7|-7-7-|-----------------------------------------------|
E-|-5-5-5-5|-5-5-5-5|-5-5|-5-5-5-5|-5-5-5-5|-5-5-|-----------------------------------------------|
      Guitar 2
e-|----------------------------------------------|-----------------------------------------------|
B-|----------------------------------------------|-----------------------------------------------|
G-|----------------------------------------------|-----------------------------------------------|
D-|----------------------------------------------|-----------------------------------------------|
A-|-7-7-7-7|-7-7-7-7|-7-7|-7-7-7-7|-7-7-7-7|-7-7-|---8-8-7-7---8-8-7---8---8-8-7-7---------5-5-7-|
E-|-5-5-5-5|-5-5-5-5|-5-5|-5-5-5-5|-5-5-5-5|-5-5-|-5---------5-------5---5---------5-7-7-8-------|



02:20 Guitar 1
e-|-15BU---------------------------------------------|
B-|-18BU---------------------------------------------|
G-|--------------------------------------------------|
D-|--------------------------------------------------|
A-|--------------------------------------------------|
E-|--------------------------------------------------|
      Guitar 2
e-|--------------------------------------------------|
B-|--------------------------------------------------|
G-|--------------------------------------------------|
D-|--------------------------------------------------|
A-|-7------------------------------------------------|
E-|-5------------------------------------------*****-|



02:24 Guitar 1
e-|-------------------------------------------------------------------|
B-|-------------------------------------------------------------------|
G-|-------------------------------------------------------------------|
D-|-------------------------------------------------------------------|
A-|-7------------------------5-------3--------------------------------|
E-|-5------------------------3-------1--------------------------------|
      Guitar 2
e-|-8-0-0-0-7-0-0-0-10-0-0-0-8-0-0-0-7-0-0-0-10-0-0-0-8-0-0-0-7-0-0-0-|
B-|-------------------------------------------------------------------|
G-|-------------------------------------------------------------------|
D-|-------------------------------------------------------------------|
A-|-------------------------------------------------------------------|
E-|-------------------------------------------------------------------|



02:27 Guitar 1
e-|--------------------------------------------------|---------|
B-|--------------------------------------------------|---------|
G-|--------------------------------------------------|---------|
D-|--------------------------------------------------|---------|
A-|-5--------------------------------2---------------|-2--3--5-|
E-|-3--------------------------------0---------------|-0--1--3-|
      Guitar 2
e-|-10-0-0-0-8-0-0-0-7-0-0-0-5-0-0-0-7-0-0-0-8-0-0-0-|---------|
B-|--------------------------------------------------|---------|
G-|--------------------------------------------------|---------|
D-|--------------------------------------------------|---------|
A-|--------------------------------------------------|-2--3--5-|
E-|--------------------------------------------------|-0--1--3-|



02:30 Guitar 1
e-|-------------------------------------------------------------------|
B-|-------------------------------------------------------------------|
G-|-------------------------------------------------------------------|
D-|-------------------------------------------------------------------|
A-|-7------------------------5-------3--------------------------------|
E-|-5------------------------3-------1--------------------------------|
      Guitar 2
e-|-8-0-0-0-7-0-0-0-10-0-0-0-8-0-0-0-7-0-0-0-10-0-0-0-8-0-0-0-7-0-0-0-|
B-|-------------------------------------------------------------------
G-|-------------------------------------------------------------------|
D-|-------------------------------------------------------------------|
A-|-------------------------------------------------------------------|
E-|-------------------------------------------------------------------|



02:34 Guitar 1
e-|------------------------------------|----------------|
B-|------------------------------------|----------------|
G-|------------------------------------|----------------|
D-|-7----------------------------------|---5-5----7-5-4-|
A-|-5----------------------------------|---3-3----5-3-2-|
E-|------------------------------------|-0------0-------|
      Guitar 2
e-|-13-0-0-0-12-0-0-0-10-0-0-0-8-0-0-0-|----------------|
B-|------------------------------------|----------------|
G-|------------------------------------|----------------|
D-|------------------------------------|---5-5----7-5-4-|
A-|------------------------------------|---3-3----5-3-2-|
E-|------------------------------------|-0------0-------|



02:37 Guitar 1
e-|-------------------------------------------------------------------|
B-|-------------------------------------------------------------------|
G-|-------------------------------------------------------------------|
D-|-------------------------------------------------------------------|
A-|-7------------------------5-------3--------------------------------|
E-|-5------------------------3-------1--------------------------------|
      Guitar 2
e-|-8-0-0-0-7-0-0-0-10-0-0-0-8-0-0-0-7-0-0-0-10-0-0-0-8-0-0-0-7-0-0-0-|
B-|-------------------------------------------------------------------|
G-|-------------------------------------------------------------------|
D-|-------------------------------------------------------------------|
A-|-------------------------------------------------------------------|
E-|-------------------------------------------------------------------|



02:41 Guitar 1
e-|--------------------------------------------------|---------|
B-|--------------------------------------------------|---------|
G-|--------------------------------------------------|---------|
D-|--------------------------------------------------|---------|
A-|-5--------------------------------2---------------|-2--3--5-|
E-|-3--------------------------------0---------------|-0--1--3-|
      Guitar 2
e-|-10-0-0-0-8-0-0-0-7-0-0-0-5-0-0-0-7-0-0-0-8-0-0-0-|---------|
B-|--------------------------------------------------|---------|
G-|--------------------------------------------------|---------|
D-|--------------------------------------------------|---------|
A-|--------------------------------------------------|-2--3--5-|
E-|--------------------------------------------------|-0--1--3-|



02:44 Guitar 1
e-|-------------------------------------------------------------------|
B-|-------------------------------------------------------------------|
G-|-------------------------------------------------------------------|
D-|-------------------------------------------------------------------|
A-|-7------------------------5-------3--------------------------------|
E-|-5------------------------3-------1--------------------------------|
      Guitar 2
e-|-8-0-0-0-7-0-0-0-10-0-0-0-8-0-0-0-7-0-0-0-10-0-0-0-8-0-0-0-7-0-0-0-|
B-|-------------------------------------------------------------------|
G-|-------------------------------------------------------------------|
D-|-------------------------------------------------------------------|
A-|-------------------------------------------------------------------|
E-|-------------------------------------------------------------------|



02:48 Guitar 1
e-|------------------------------------|----------------|
B-|------------------------------------|----------------|
G-|------------------------------------|----------------|
D-|-7----------------------------------|---5-5----7-5-4-|
A-|-5----------------------------------|---3-3----5-3-2-|
E-|------------------------------------|-0------0-------|
      Guitar 2
e-|-13-0-0-0-12-0-0-0-10-0-0-0-8-0-0-0-|----------------|
B-|------------------------------------|----------------|
G-|------------------------------------|----------------|
D-|------------------------------------|---5-5----7-5-4-|
A-|------------------------------------|---3-3----5-3-2-|
E-|------------------------------------|-0------0-------|



02:51 Guitar 1
e-|---------------------------------------|----------------------------|
B-|---------------------------------------|----------------------------|
G-|---------------------------------------|----------------------------|
D-|-4|--------------------7--------6------|-4|--------------------2----|
A-|-2|--------------------5--------4------|-2|--------------------0----|
E-|-2|--------------------5--------4------|-2|--------------------0----|
      Guitar 2
e-|---------------------------------------|-----------------------12AH-|
B-|-12-0-11-0-8-0-7-0-5-0-7---7H8P7-0-5-0-|-12-0-11-0-8-0-7-0-5-0------|
G-|---------------------------------------|----------------------------|
D-|---------------------------------------|----------------------------|
A-|---------------------------------------|----------------------------|
E-|---------------------------------------|----------------------------|



02:58 Guitar 1
e-|---------------------------------------|----------------------------|
B-|---------------------------------------|----------------------------|
G-|---------------------------------------|----------------------------|
D-|-4|--------------------7--------6------|-4|--------------------2----|
A-|-2|--------------------5--------4------|-2|--------------------0----|
E-|-2|--------------------5--------4------|-2|--------------------0----|
      Guitar 2
e-|---------------------------------------|----------------------------|
B-|-12-0-11-0-8-0-7-0-5-0-7---7H8P7-0-5-0-|-12-0-11-0-8-0-7-0-5-0-12AH-|
G-|---------------------------------------|----------------------------|
D-|---------------------------------------|----------------------------|
A-|---------------------------------------|----------------------------|
E-|---------------------------------------|----------------------------|



03:05 Guitar 1
e-|---------------------------------------|---------------------------------------------------|
B-|---------------------------------------|---------------------------------------------------|
G-|---------------------------------------|---------------------------------------------------|
D-|---------------------------------------|---------------------------------------------------|
A-|-2-2-2-2-2-2-2-2-2-2-2-2-2-5-5-5-4-4-4-|-2-2-2-2-2-2-2-2-2-2-2-2-2-2-2-2-2-0-0-0-0-0-0-0-0-|
E-|---------------------------------------|---------------------------------------------------|
      Guitar 2
e-|---------------------------------------|----------------------------------7-9-10-9-10-12P9-|
B-|-12-0-11-0-8-0-7-0-5-0-7---7H8P7-0-5-0-|-12-0-11-0-8-0-7-0-5-0-7---7-9-10------------------|
G-|---------------------------------------|---------------------------------------------------|
D-|---------------------------------------|---------------------------------------------------|
A-|---------------------------------------|---------------------------------------------------|
E-|---------------------------------------|---------------------------------------------------|



03:12 Guitar 1
e-|---------------------------------------|---------------------------------------------------|
B-|---------------------------------------|---------------------------------------------------|
G-|---------------------------------------|---------------------------------------------------|
D-|---------------------------------------|---------------------------------------------------|
A-|-2-2-2-2-2-2-2-2-2-2-2-2-2-5-5-5-4-4-4-|-2-2-2-2-2-2-2-2-2-2-2-2-2-2-2-2-2-0-0-0-0-0-0-0-0-|
E-|---------------------------------------|---------------------------------------------------|
      Guitar 2
e-|---------------------------------------|---------------------------------------------------|
B-|-12-0-11-0-8-0-7-0-5-0-7---7H8P7-0-5-0-|-12-0-11-0-8-0-7-0-5-0-7---------------------------|
G-|---------------------------------------|---------------------------------------------------|
D-|---------------------------------------|---------------------------------------------------|
A-|---------------------------------------|---------------------------------------------------|
E-|---------------------------------------|---------------------------------------------------|



03:19 Guitar 1
e-|---------------------------------------|-------------------------|
B-|---------------------------------------|-------------------------|
G-|---------------------------------------|-------------------------|
D-|---------------------------------------|-------------------------|
A-|-5|--------------------8--------7------|-5|--------------------3-|
E-|-3|--------------------6--------5------|-3|--------------------1-|
      Guitar 2
e-|---------------------------------------|-------------------------|
B-|---------------------------------------|-------------------------|
G-|-12-0-11-0-8-0-7-0-5-0-7---7H8P7-0-5-0-|-12-0-11-0-8-0-7-0-5-0-7-|
D-|---------------------------------------|-------------------------|
A-|---------------------------------------|-------------------------|
E-|---------------------------------------|-------------------------|



03:25 Guitar 1
e-|---------------------------------------|-------------------------|
B-|---------------------------------------|-------------------------|
G-|---------------------------------------|-------------------------|
D-|---------------------------------------|-------------------------|
A-|-5|--------------------8--------7------|-5|--------------------3-|
E-|-3|--------------------6--------5------|-3|--------------------1-|
      Guitar 2
e-|---------------------------------------|-------------------------|
B-|---------------------------------------|-------------------------|
G-|-12-0-11-0-8-0-7-0-5-0-7---7H8P7-0-5-0-|-12-0-11-0-8-0-7-0-5-0-7-|
D-|---------------------------------------|-------------------------|
A-|---------------------------------------|-------------------------|
E-|---------------------------------------|-------------------------|



03:32 Guitar 1
e-|-----------------------------------------------------------------------------------------------|
B-|-----------------------------------------------------------------------------------------------|
G-|-----------------------------------------------------------------------------------------------|
D-|-4---------4---------4---------4---------7---6---2---------2---------2---------2---------7---6-|
A-|-2-2-2-2-2-2-2-2-2-2-2-2-2-2-2-2-2-2-2-2-5---4---0-0-0-0-0-0-0-0-0-0-0-0-0-0-0-0-0-0-0-0-5---4-|
E-|-----------------------------------------------------------------------------------------------|
      Guitar 2
e-|-----------------------------------------------------------------------------------------------|
B-|-----------------------------------------------------------------------------------------------|
G-|-----------------------------------------------------------------------------------------------|
D-|--SOLO-----------------------------------------------------------------------------------------|
A-|-----------------------------------------------------------------------------------------------|
E-|-----------------------------------------------------------------------------------------------|



03:39 Guitar 1
e-|---------------------------------------------------------------------------------------|
B-|---------------------------------------------------------------------------------------|
G-|---------------------------------------------------------------------------------------|
D-|-4------------7-7-6-6-2------------7---6-----------------------------------------------|
A-|-2------------5-5-4-4-0------------5---4---5---------5---------5---------5-----5-----5-|
E-|-------------------------------------------3-3-3-3-3-3-3-3-3-3-3-3-3-3-3-3-3-3-3-3-3-3-|
      Guitar 2
e-|---------------------------------------------------------------------------------------|
B-|---------------------------------------------------------------------------------------|
G-|---------------------------------------------------------------------------------------|
D-|--SOLO---------------------------------------------------------------------------------|
A-|---------------------------------------------------------------------------------------|
E-|---------------------------------------------------------------------------------------|



03:49 Guitar 1
e-|----------------------------------------------------------------------------------------------|
B-|----------------------------------------------------------------------------------------------|
G-|----------------------------------------------------------------------------------------------|
D-|-4------------7-7-6-6---------------------------------------------2---------2---------2-----2-|
A-|-2------------5-5-4-4-5---------5---------5---------5-----5-----5-0-0-0-0-0-0-0-0-0-0-0-0-0-0-|
E-|----------------------3-3-3-3-3-3-3-3-3-3-3-3-3-3-3-3-3-3-3-3-3-3-----------------------------|
      Guitar 2
e-|----------------------------------------------------------------------------------------------|
B-|----------------------------------------------------------------------------------------------|
G-|----------------------------------------------------------------------------------------------|
D-|--SOLO----------------------------------------------------------------------------------------|
A-|----------------------------------------------------------------------------------------------|
E-|----------------------------------------------------------------------------------------------|



04:00 Guitar 1
e-|---------------------------------------------------------------------------------------------------------|
B-|---------------------------------------------------------------------------------------------------------|
G-|---------------------------------------------------------------------------------------------------------|
D-|-2|----------2|----------2|----------2|----------2--7|----------7|-------7--7--7|----------7|------------|
A-|-0|----------0|----------0|----------0|----------0--5|----------5|-------5--5--5|----------5|----------2-|
E-|-------------------------------------------------------------------------------------------------------0-|
      Guitar 2
e-|---------------------------------------------------------------------------------------------------------|
B-|---------------------------------------------------------------------------------------------------------|
G-|---------------------------------------------------------------------------------------------------------|
D-|--SOLO---------------------------------------------------------------------------------------------------|
A-|---------------------------------------------------------------------------------------------------------|
E-|---------------------------------------------------------------------------------------------------------|



04:20 Guitar 1
e-|-------------------------------------------------------------------|
B-|-------------------------------------------------------------------|
G-|-------------------------------------------------------------------|
D-|-------------------------------------------------------------------|
A-|-7|-----------------------5-------3--------------------------------|
E-|-5|-----------------------3-------1--------------------------------|
      Guitar 2
e-|-8-0-0-0-7-0-0-0-10-0-0-0-8-0-0-0-7-0-0-0-10-0-0-0-8-0-0-0-7-0-0-0-|
B-|-------------------------------------------------------------------|
G-|-------------------------------------------------------------------|
D-|-------------------------------------------------------------------|
A-|-------------------------------------------------------------------|
E-|-------------------------------------------------------------------|



04:24 Guitar 1
e-|--------------------------------------------------|---------|
B-|--------------------------------------------------|---------|
G-|--------------------------------------------------|---------|
D-|--------------------------------------------------|---------|
A-|-5|-------------------------------2---------------|-2--3--5-|
E-|-3|-------------------------------0---------------|-0--1--3-|
      Guitar 2
e-|-10-0-0-0-8-0-0-0-7-0-0-0-5-0-0-0-7-0-0-0-8-0-0-0-|---------|
B-|--------------------------------------------------|---------|
G-|--------------------------------------------------|---------|
D-|--------------------------------------------------|---------|
A-|--------------------------------------------------|-2--3--5-|
E-|--------------------------------------------------|-0--1--3-|



04:27 Guitar 1
e-|-------------------------------------------------------------------|
B-|-------------------------------------------------------------------|
G-|-------------------------------------------------------------------|
D-|-------------------------------------------------------------------|
A-|-7------------------------5-------3--------------------------------|
E-|-5------------------------3-------1--------------------------------|
      Guitar 2
e-|-8-0-0-0-7-0-0-0-10-0-0-0-8-0-0-0-7-0-0-0-10-0-0-0-8-0-0-0-7-0-0-0-|
B-|-------------------------------------------------------------------
G-|-------------------------------------------------------------------|
D-|-------------------------------------------------------------------|
A-|-------------------------------------------------------------------|
E-|-------------------------------------------------------------------|



04:30 Guitar 1
e-|------------------------------------|----------------|
B-|------------------------------------|----------------|
G-|------------------------------------|----------------|
D-|-7----------------------------------|---5-5----7-5-4-|
A-|-5----------------------------------|---3-3----5-3-2-|
E-|------------------------------------|-0------0-------|
      Guitar 2
e-|-13-0-0-0-12-0-0-0-10-0-0-0-8-0-0-0-|----------------|
B-|------------------------------------|----------------|
G-|------------------------------------|----------------|
D-|------------------------------------|---5-5----7-5-4-|
A-|------------------------------------|---3-3----5-3-2-|
E-|------------------------------------|-0------0-------|



04:34 Guitar 1
e-|-------------------------------------------------------------------|
B-|-------------------------------------------------------------------|
G-|-------------------------------------------------------------------|
D-|-------------------------------------------------------------------|
A-|-7------------------------5-------3--------------------------------|
E-|-5------------------------3-------1--------------------------------|
      Guitar 2
e-|-8-0-0-0-7-0-0-0-10-0-0-0-8-0-0-0-7-0-0-0-10-0-0-0-8-0-0-0-7-0-0-0-|
B-|-------------------------------------------------------------------|
G-|-------------------------------------------------------------------|
D-|-------------------------------------------------------------------|
A-|-------------------------------------------------------------------|
E-|-------------------------------------------------------------------|



04:37 Guitar 1
e-|--------------------------------------------------|---------|
B-|--------------------------------------------------|---------|
G-|--------------------------------------------------|---------|
D-|--------------------------------------------------|---------|
A-|-5--------------------------------2---------------|-2--3--5-|
E-|-3--------------------------------0---------------|-0--1--3-|
      Guitar 2
e-|-10-0-0-0-8-0-0-0-7-0-0-0-5-0-0-0-7-0-0-0-8-0-0-0-|---------|
B-|--------------------------------------------------|---------|
G-|--------------------------------------------------|---------|
D-|--------------------------------------------------|---------|
A-|--------------------------------------------------|-2--3--5-|
E-|--------------------------------------------------|-0--1--3-|



04:41 Guitar 1
e-|-------------------------------------------------------------------|
B-|-------------------------------------------------------------------|
G-|-------------------------------------------------------------------|
D-|-------------------------------------------------------------------|
A-|-7------------------------5-------3--------------------------------|
E-|-5------------------------3-------1--------------------------------|
      Guitar 2
e-|-8-0-0-0-7-0-0-0-10-0-0-0-8-0-0-0-7-0-0-0-10-0-0-0-8-0-0-0-7-0-0-0-|
B-|-------------------------------------------------------------------|
G-|-------------------------------------------------------------------|
D-|-------------------------------------------------------------------|
A-|-------------------------------------------------------------------|
E-|-------------------------------------------------------------------|



04:44 Guitar 1
e-|------------------------------------|----------------|----------------|------------------|
B-|------------------------------------|----------------|----------------|------------------|
G-|------------------------------------|----------------|----------------|------------------|
D-|-7----------------------------------|---5-5----7-5-4-|---5-5----7-5-4-|---5-5----7-5-4-2-|
A-|-5----------------------------------|---3-3----5-3-2-|---3-3----5-3-2-|---3-3----5-3-2-0-|
E-|------------------------------------|-0------0-------|-0------0-------|-0------0---------|
      Guitar 2
e-|-13-0-0-0-12-0-0-0-10-0-0-0-8-0-0-0-|----------------|----------------|------------------|
B-|------------------------------------|----------------|----------------|------------------|
G-|------------------------------------|----------------|----------------|------------------|
D-|------------------------------------|---5-5----7-5-4-|---5-5----7-5-4-|---5-5----7-5-4-2-|
A-|------------------------------------|---3-3----5-3-2-|---3-3----5-3-2-|---3-3----5-3-2-0-|
E-|------------------------------------|-0------0-------|-0------0-------|-0------0---------|

  Visit MetalTabs.com for more metal tablature

bottom separator

Contact Us | Privacy Policy | Disclaimer | Legal Notice
Copyright © 2001-2014 MetalTabs.com. All Rights Reserved.