top separator

Home

Forum

What's New

Submit a Tab

FAQ

Links

Contact Us

Link to Us

MuSpy.com

MetalTabs.com logo

Bands

0-9

A

B

C

D

E

F

G

H

I

J

K

L

M

N

O

P

Q

R

S

T

U

V

W

X

Y

Z

Search

What

Where
 

Possessed - "Seven Churches" Guitar Tab

Plain Text Version
More Possessed Tabs

Hits: 6707
Rated: 2.73 out of 5 (11 votes)
Updated: 2003-04-27 19:20:40

 

By:

Chris Rezendes

sendpm.gif

email.gif

Important note
This tab is available online because we obtained explicit permission from Possessed or their label.


#----------------------------------PLEASE NOTE---------------------------------#
#This file is the author's own work and represents their interpretation of the #
#song. You may only use this file for private study, scholarship, or research. #
#Unless specified otherwise, this is NOT an official tab from the band members.#
#------------------------------------------------------------------------------#

  Visit MetalTabs.com for more metal tablature
  
=========================================================================================
Song: Seven Churches
Artist: Possessed
Album: Seven Churches (1985)

Tabbed by Chris Rezendes (dudemcrude@yahoo.com)
Date started tab: 10/20/02
Date finished tab: 11/1/02
Updated: 11/28/02

Tuning: Standard

Notation Key
~: vibrato
^: bend
.: palm mute
r: release
t: trill
p: pull-off
h: hammer-on
x: ghost note
/: slide up
\: slide down

Comments: This song is way too fucking cool.  Haha! I've finally caught the groove of
Riff 2!  It still is probably a little off, but it's definitely a lot closer, and if you
can do better, you're certainly welcome to try!  That's actually not even where I got
stuck.  I got stuck at Riffs 3A and 3B.  But eventually I caught on to the groove and it
was pretty easy from there.  If you don't like Possessed, than you can suck my nuts.  I
usually don't say shit like that, but you can't like death metal without liking
Possessed.  It's impossible.  I've got some more Possessed tabs to make, so keep an eye
out.  Later, cats and kittens.

If you have any requests visit- http://groups.yahoo.com/group/realmetalmusicians/
=========================================================================================

Riff 1 x4
e|-----------|-----------|-----------|---------------|
B|-----------|-----------|-----------|---------------|
G|-----------|-----------|-----------|---------------|
D|-----------|-----------|-----------|------------4--|
A|----4-134--|----4-134--|----4-134--|------4310--4--|
E|--1--------|--1--------|--1--------|--1-1-------2--|

Riff 2 x6
e|------------------|---------|
B|------------------|---------|
G|------------------|---------|
D|------------------|---------|
A|----431-----431---|----134--|
E|--1----2--1----2--|--1------|

Fig. 1 x4
e|--------|---------|---------|----------|
B|--------|---------|---------|----------|
G|--------|--5------|--4------|--3--3-2--|
D|--4-----|--5------|--4------|--3--3-2--|
A|--4-----|--3-333--|--2-222--|--1--1-0--|
E|--2-222-|---------|---------|----------|
      ...      ...       ...

Repeat Riff 2 x6
Repeat Fig. 1 x4

Fig. 2 x1
e|--------------|
B|--------------|
G|--------------|
D|--4--4--4--5--|
A|--4--4--4--5--|
E|--2--2--2--3--|

Riff 3A x4
e|-------------------|
B|-------------------|
G|-------------------|
D|------346----------|
A|--235-----865------|
E|--------------754--|

Riff 3B x4
e|-------------------|
B|-------------------|
G|------457----------|
D|--346-----976------|
A|--------------865--|
E|-------------------|

Repeat Riff 3A x4
Repeat Fig. 1 x4

Riff 4 x8 (under solo)
e|-----------------|
B|-----------------|
G|-----------------|
D|-----------------|
A|------------1-0--|
E|--222222222------|

Riff 5 x2 (under solo)
e|-----------------|-----------------|-----------------|---------------|
B|-----------------|-----------------|-----------------|---------------|
G|-----------------|-----------------|-----------------|---------------|
D|-----------------|-----------------|-----------------|---------------|
A|-----------------|-----------------|-----------------|----------3-4--|
E|--111111111-6-5--|--111111111-6-5--|--111111111-6-5--|--111111--1-2--|

Repeat Riff 4 x8
Repeat Riff 5 x2
Repeat Riff 1 x4
Repeat Riff 2 x6
Repeat Fig. 1 x4
Repeat Fig. 2 x1
Repeat Riff 3A x4
Repeat Riff 3B x4
Repeat Riff 3A x4
Repeat Fig. 2 x1

End x1
e|----------------------|
B|----------------------|
G|----------------------|
D|------346----------4--|
A|--235-----865------4--|
E|--------------754--2--|

  Visit MetalTabs.com for more metal tablature

bottom separator

Contact Us | Privacy Policy | Disclaimer | Legal Notice
Copyright © 2001-2014 MetalTabs.com. All Rights Reserved.