top separator

Home

Forum

What's New

Submit a Tab

FAQ

Links

Contact Us

Link to Us

MetalTabs.com logo

Bands

0-9

A

B

C

D

E

F

G

H

I

J

K

L

M

N

O

P

Q

R

S

T

U

V

W

X

Y

Z

Search

What

Where
 

Abyssos - "Banquet in the Dark" Guitar Tab

Plain Text Version
More Abyssos Tabs

Hits: 5852
Rated: 4.57 out of 5 (7 votes)
Updated: 2003-04-27 19:11:48

 

By:

Arckanum

sendpm.gif

email.gif

Important note
We did our best to reach Abyssos and ask for their permission to publish this tab. Unfortunately they did not respond to our requests or we could not find a way to contact them. This tab is available online until Abyssos tells us to take it down.


#----------------------------------PLEASE NOTE---------------------------------#
#This file is the author's own work and represents their interpretation of the #
#song. You may only use this file for private study, scholarship, or research. #
#Unless specified otherwise, this is NOT an official tab from the band members.#
#------------------------------------------------------------------------------#

  Visit MetalTabs.com for more metal tablature
  
Band: Abyssos
Album: Together We Summon The Dark
Song: Banquet in the Dark (black Friday)

Transcribed By: Arckanum
Email: Arckanum@teamwarfare.com
Website: www.teamrapture.com
More Tabs from me at: http://www.doomish.com/go/?r=arckanum

listen to the song to know when to tremolo pick and palm mute and such.
NOTE: there are mistakes that i couldn't get, being that some riffs
are tuff to tab by ear. If anyone finds a fix plz email it to me.
Also listen to the song to hear the Riff order cuz i'm to lazy to
write it out, shouldn't be hard tho.

Tune: E A D G B E

Riff:1
|-------------------------------------------------------------------|
|-------------------------------------------------------------------|
|----4----------------------------------------------------4---------|
|--2-4---------------------h-p------h-p-----------------2-4---------|Gtr.1
|--2-2-------2-3-5-3~~--5-3-5-3--3-2-3-2----------------2-2-------2-|
|--0---0-3-5--------------------------------------------0---0-3-5---|
|
|-------------------------------------------------------------------|
|-------------------------------------------------------------------|
|----4--------------------------h--p--------h--p--------------------|
|--2-4------7-9-10-12-10~--12-10-12-10--10-9-10-9----------------7-9|Gtr.2
|--2-2-7-10---------------------------------------10-9-7~~--7-10----|
|--0----------------------------------------------------------------|

Cont.
|-------------------------------------------------------------------|
|-------------------------------------------------------------------|
|-------------------------------------------------------------------|
|-----------------h-p------h-p--------------------------------------|Gtr.1
|-3-5-3~~2~~--5-3-5-3--3-2-3-2--2-0-2-------------------------------|
|-------------------------------------------------------------------|
|
|-------------------------------------------------------------------|
|-------------------------------------------------------------------|
|---------------------h--p--------h--p------------------------------|
|-10-12-10~~9~~--12-10-12-10--10-9-10-9-----------------------------|Gtr.2
|---------------------------------------10-9-7~~--------------------|
|-------------------------------------------------------------------|

Riff:2
|-------------------------------------------------------------------|
|-------------------------------------------------------------------|
|-------------------------------------------------------------------|
|---------------------------------------h-p------h-p----------------|Gtr.1
|--2----2----2------2-3-5-333--------5-3-5-3--3-2-3-2-2-0-----------|
|--000000000000-3-5-------------------------------------------------|
|
|-------------------------------------------------------------------|
|-------------------------------------------------------------------|
|-----------------------------------------h--p--------h--p----------|
|--9----9----9-----7-9-10-12-101010--12-10-12-10--10-9-10-9---------|Gtr.2
|--7----7----77-10------------------------------------------10-9----|
|---0000-0000-------------------------------------------------------|

Riff:3                           Riff:4
|-------------------------------|-----------------------------------|
|-------------------------------|-----------------------------------|
|-------------------------------|-----------------------------------|
|-9-----910-----107-----79------|---------------------5---4-------hp|
|-7-----78------8-5-----57------|-----3---2---5323-333-333-333-3-232|
|--0000----0000----0000----0000-|-0000-000-000----------------------|

Mini-Solo:1 (played with Riff:4)
|-------------------------------------------------------------------|
|---------h-p---h-p-------------------------------------------/5~~--|
|--/5~-7-5-7-5-4-5-4-2/4------------2-4-5-4-2----2-4-5-4-2-0--------|
|------------------------2~--2-4-5------------5---------------------|
|-------------------------------------------------------------------|
|-------------------------------------------------------------------|

Cont.
|--p-p-h-h----------------------------------------------------------|
|-8-7-5-7-8--h-p---h-p----------------------------------------------|
|-----------5-7-5-4-5-4-2-4-5-5/7-5-4-2/4-------24542--245420-------|
|-----------------------------------------2~-245-----5--------------|
|-------------------------------------------------------------------|
|-------------------------------------------------------------------|

Riff:5
|-------------------------------------------------------------------|
|-------------------------------------------------------------------|
|-------------------------------------------------------------------|
|-777---777---777101010---101010999------999------999-------12-10-9-|Gtr.1
|----000---000---------888---------101010---101010---101010---------|
|-------------------------------------------------------------------|
|
|-------------------------------------------------------------------|
|-------------------------------------------------------------------|
|-------------------999---------------------------------------------|
|-777---101010999777------777999------999------------999777---------|Gtr.2
|----000---------------888------101010---101010101010------101010---|
|-------------------------------------------------------------------|

Cont.
|-------------------------------------------------------------------|
|-------------------------------------------------------------------|
|-------------------------------------------------------------------|
|-777---777---777------------999------------------------------------|Gtr.1
|----000---000---888101010777----10-12-10-9-10-9-7------------------|
|-------------------------------------------------------------------|
|
|-------------------------------------------------------------------|
|-------------------------------------------------------------------|
|-------------------999---------------------------------------------|
|-777---101010999777------------------------------------------------|Gtr.2
|----000---------------888101010777-7-8-7-5-7-5-0-------------------|
|-------------------------------------------------------------------|

Riff:6                            1st             2nd
|-------------------------------|---------------|-------------------|
|-------------------------------|---------------|-------------------|
|---------h--p--p-h-------------|---------------|-------------------|
|--10-9-10-12-10-9-10----10---9-|---9-10-7-9-10-|-------------------|Gtr.1
|-0--0-0---------------8----8---|-8-------------|-7-8-7-5-----------|
|-------------------------------|---------------|---------7-5-------|
|(played by Gtr2 with riff6 near the end of the riff)
|-------------------------------|---------------|-------------------|
|-------------------------------|---------------|-------------------|
|-------h--p-p-h----------------|---------------|-------------------|
|--9-8-9-11-9-8-9---9-8---------|---8-9-6-8-9---|-------------------|Gtr.2
|-7-7-7------------7-7--8-------|-7-------------|-7-8-7-5-----------|
|-------------------------------|---------------|---------7-5-------|

Riff:7           1&3                     2nd                4th
|-------------------|------------------------|----------------------|
|-------------------|------------------------|----------------------|
|---------9-7---7-9-|------------------------|----------------------|
|-------------9-----|------------------------|----------------------|Gtr.1
|--12-0-7-----------|-12-0-14-0--12-14-15-14-|-12-0-7-8--7-8-7------|
|-------------------|------------------------|-----------------8----|
|                   1&3                  2nd                   4th
|-----------------------|-------------------|-----------------------|
|-----------------------|-------------------|-----------------------|
|-----------------------|-------------------|-----------------------|
|--141414-101010-121212-|-141414-121212-999-|-141414-101010---------|Gtr.2
|--121212-8-8-8--101010-|-121212-101010-777-|-121212-8-8-8--7-8-7---|
|-----------------------|-------------------|---------------------8-|

Riff:8
|-------------------------------------------------------------------|
|-------------------------------------------------------------------|
|-------------------------------------------------------------------|
|--555---555---444000444-77554455--555---555---444000-44557744------|Gtr.1
|-----777---777-----------------------777---777---------------------|
|-------------------------------------------------------------------|
|
|-------------------------------------------------------------------|
|-------------------------------------------------------------------|
|--444---444-------------55442244--444---444----------22445522------|
|-----222---222444000444--------------222---222444000---------------|Gtr.2
|-------------------------------------------------------------------|
|-------------------------------------------------------------------|

Riff:9
|-------------------------------------------------------------------|
|-------------------------------------------------------------------|
|-------------------------------------------------------------------|
|--222----------222-------------------------------------------------|Gtr.1
|--000-555-333--000-555-222-----------------------------------------|
|------333-111------333-000-----------------------------------------|
|                                         1st      2nd
|----------------------------------------|--------|-----------------|
|-----------------trill------------------|-777666-|-----------------|
|--2224445557775555-45--2224445557775555-|--------|-444555----------|
|----------------------------------------|--------|-----------------|Gtr.2
|----------------------------------------|--------|-----------------|
|----------------------------------------|--------|-----------------|

Riff:10                         1-3                              4th
|----------------------------------|--------------------------------|
|----------------------------------|--------------------------------|
|-----4---5-4---4--------2---------|-----4---5-4---4-----2-4-5-4-2-4|
|---2---2-----5------2-5---5-4---4-|---2---2-----5-----2------------|Gtr.1
|-0----------------0-----------5---|-0---------------0--------------|
|----------------------------------|--------------------------------|
|                               1&3              2nd             4th
|-----------------|----------------|----------------|---------------|
|-----------------|----------------|----------------|---------------|
|-----4---5-4---4-|---/7-5-4-2-4-5-|---/7-5-4-------|---------2-----|
|---2---2-----5---|--2-------------|--2-------2-4-5-|--2-4-5---5-4-5|Gtr.2
|-0---------------|0---------------|0---------------|0--------------|
|-----------------|----------------|----------------|---------------|

Riff:11                                  1st              2nd
|---------------------|---------------------|-----------------------|
|------------h-p-p----|---------------------|-----------------------|
|-----4---5-2-4-2-0-2-|-------2-------------|-----2-----------------|
|---2---2-------------|---2-5---/7-5-4-5--4-|---4---/7-5-4-5--------|Gtr.1
|-0-------------------|-0-------------------|-0---------------------|
|---------------------|---------------------|-----------------------|
|                                    1st          2nd
|------------------------------|---------|--------------------------|
|------------------------------|---------|------h-------------------|
|-----4------h-p-----------2---|-5-4-2-4-|---4-4-5-4----------------|
|---2---2-5-4-5-4\2-4----4---4-|---------|--------------------------|Gtr.2
|-0--------------------5-------|---------|-3------------------------|
|------------------------------|---------|--------------------------|

  Visit MetalTabs.com for more metal tablature

bottom separator

Contact Us | Privacy Policy | Disclaimer | Legal Notice
Copyright © 2001-2014 MetalTabs.com. All Rights Reserved.