top separator

Home

Forum

What's New

Submit a Tab

FAQ

Links

Contact Us

Link to Us

MuSpy.com

MetalTabs.com logo

Bands

0-9

A

B

C

D

E

F

G

H

I

J

K

L

M

N

O

P

Q

R

S

T

U

V

W

X

Y

Z

Search

What

Where
 

Possessed - "Twisred Minds" Guitar Tab

Plain Text Version
More Possessed Tabs

Hits: 4478
Rated: 3.40 out of 5 (10 votes)
Updated: 2003-04-27 18:53:31

 

By:

Chris Rezendes

sendpm.gif

email.gif

Important note
This tab is available online because we obtained explicit permission from Possessed or their label.


#----------------------------------PLEASE NOTE---------------------------------#
#This file is the author's own work and represents their interpretation of the #
#song. You may only use this file for private study, scholarship, or research. #
#Unless specified otherwise, this is NOT an official tab from the band members.#
#------------------------------------------------------------------------------#

  Visit MetalTabs.com for more metal tablature
  
=========================================================================================
Song: Twisted Minds
Artist: Possessed
Album: Seven Churches (1985)

Tabbed by Chris Rezendes (dudemcrude@yahoo.com)
Date started tab: 12/5/02
Date finished tab: 12/5/02

Tuning: Standard
Copy: Rough Draft

Notation Key
~: vibrato
^: bend
.: palm mute
r: release
t: trill
p: pull-off
h: hammer-on
x: ghost note
/: slide up
\: slide down

Comments:  I managed to find a live version of this song, which is pretty cool, but I
prefer the live version of Pentagram to this... I also managed to find a live version of
Burning in Hell, which is a badass song.  Anyway, if you spot a mistake, point it out to
me so I can fix it.  Later.

If you have any requests visit- http://groups.yahoo.com/group/realmetalmusicians/
=========================================================================================

Intro x1
e|---------------------|-------------------------|
B|---------------------|-------------------------|
G|----------8----------|----------8--------------|
D|--7-7-7---8---7-7-7--|--7-7-7---8---7-7-7---4--|
A|--7-7-7---6---7-7-7--|--7-7-7---6---7-7-7---4--|
E|--5-5-5-------5-5-5--|--5-5-5-------5-5-5---2--|

e|---------------------|-----------------------------|---------------------------|
B|---------------------|-----------------------------|---------------------------|
G|----------8----------|----------8------------------|---------------------------|
D|--7-7-7---8---7-7-7--|--7-7-7---8---7-7-7---4---5--|---------------------------|
A|--7-7-7---6---7-7-7--|--7-7-7---6---7-7-7---4---5--|--77777777777777777777...--|
E|--5-5-5-------5-5-5--|--5-5-5-------5-5-5---2---3--|--55555555555555555555...--|

Riff 1 x4
e|------------------|-----------------|
B|------------------|-----------------|
G|------------------|-----------------|
D|------------------|--------------7--|
A|---777777-10-8-7--|--777777-10-8-5--|
E|---555555--8-6-5--|--555555--8-6----|

Riff 2 x1
e|-------------------|-------------------|-------------------|---------------|
B|-------------------|-------------------|-------------------|---------------|
G|-------------------|-------------------|-------------------|---------------|
D|--999999-888-------|--999999-888-------|--999999-888-------|---------------|
A|--777777-666-10-9--|--777777-666-10-9--|--777777-666-10-9--|--12----10-12--|
E|--------------8-7--|--------------8-7--|--------------8-7--|--10-----8-10--|

e|-------------------|-------------------|-------------------|
B|-------------------|-------------------|-------------------|
G|-------------------|-------------------|-------------------|
D|--999999-888-------|--999999-888-------|--999999-888-------|
A|--777777-666-10-9--|--777777-666-10-9--|--777777-666-10-9--|
E|--------------8-7--|--------------8-7--|--------------8-7--|

Repeat Riff 1 x4
Repeat Riff 2 x1

Fill 1 x1
e|-----|---------|
B|-----|---------|
G|-----|---------|
D|-----|---------|
A|--7--|--12--8--|
E|--5--|--10--6--|

Riff 3 x4
e|--------------------------------------------|
B|--------------------------------------------|
G|--------------------------------------------|
D|---------------------------------3-2-0------|
A|--0000-3-00000000-5-00000000-2-3-------2-3--|
E|--------------------------------------------|
    ....   ........   ........

e|-------------------------------------------|
B|-------------------------------------------|
G|-------------------------------------------|
D|-------------------------------------------|
A|--0000-3-00000000-5-00000000-3-000--5---3--|
E|------------------------------------3---1--|
    ....   ........   ........   ...

Fig. 1 x4
e|-----------------------|-----|
B|-----------------------|-----|
G|-----------------------|-----|
D|------5-----8-----7-7--|--5--|
A|--000-3-000-6-000-5-5--|--3--|
E|-----------------------|-----|
    ...   ...   ...

Repeat Riff 3 x4
Repeat Fig. 1 x4

Riff 4 x4
e|-------------------------|
B|-------------------------|
G|-------------------------|
D|-------------------------|
A|--000000000000-70507023--|
E|-------------------------|

Riff 5 x1
e|-------------------------------|
B|-------------------------------|
G|-------------------------------|
D|-------------------------------|
A|--333333-222222----------------|
E|----------------333333-222222--|

Repeat Riff 4 x2
Repeat Riff 5 x1
Repeat Riff 4 x2
Repeat Riff 5 x1
Repeat Riff 4 x2
Repeat Riff 5 x1

Fig. 2 x4
e|-----------------------------|-----------------------------|
B|-----------------------------|-----------------------------|
G|-----------------------------|-----------------------------|
D|--------------------------5--|--------------------------3--|
A|--0-0-0-0-0-0-0-0-0-0-0-0-3--|--0-0-0-0-0-0-0-0-0-0-0-0-1--|
E|-----------------------------|-----------------------------|
    . . . . . . . . . . . .       . . . . . . . . . . . .

e|-----------------------------|-------------------|
B|-----------------------------|-------------------|
G|-----------------------------|-------------------|
D|--------------------------7--|--------5-------3--|
A|--0-0-0-0-0-0-0-0-0-0-0-0-5--|--0-0-0-3-0-0-0-1--|
E|-----------------------------|-------------------|
    . . . . . . . . . . . .       . . .   . . .

Repeat Riff 1 x4
Repeat Riff 2 x1
Repeat Riff 1 x4
Repeat Riff 2 x1

Fig. 3 x2
e|-----------------------------------------|-----------------------------------------|
B|-----------------------------------------|-----------------------------------------|
G|-----------------------------------------|-----------------------------------------|
D|--------3-2---------3-2---------3-2---5--|--------3-2---------3-2---------3-2------|
A|--0-0-0-1r0-0-0-0-0-1r0-0-0-0-0-1r0-0-3--|--0-0-0-1r0-0-0-0-0-1r0-0-0-0-0-1r0-0-5--|
E|-----------------------------------------|--------------------------------------3--|
    . . .     . . . .     . . . .             . . .     . . . .     . . . .

Fig. 4 x1
e|-------------------|
B|-------------------|
G|-------------------|
D|-------------------|
A|--------3-------5--|
E|--0-0-0-1-0-0-0-3--|
    . . .   . . .

Repeat Fig. 3 x2
Repeat Fig. 4 x1
Repeat Fig. 3 x2
Repeat Fig. 4 x1
Repeat Fig. 3 x2
Repeat Fig. 4 x1

Kill the song by fucking around with this chord-
e|-----|
B|-----|
G|-----|
D|--7--|
A|--7--|
E|--5--|

  Visit MetalTabs.com for more metal tablature

bottom separator

Contact Us | Privacy Policy | Disclaimer | Legal Notice
Copyright © 2001-2014 MetalTabs.com. All Rights Reserved.