top separator

Home

Forum

What's New

Submit a Tab

FAQ

Links

Contact Us

Link to Us

MuSpy.com

MetalTabs.com logo

Bands

0-9

A

B

C

D

E

F

G

H

I

J

K

L

M

N

O

P

Q

R

S

T

U

V

W

X

Y

Z

Search

What

Where
 

Possessed - "Burning In Hell" Guitar Tab

Plain Text Version
More Possessed Tabs

Hits: 7007
Rated: 3.22 out of 5 (9 votes)
Updated: 2003-04-27 18:52:27

 

By:

Chris Rezendes

sendpm.gif

email.gif

Important note
This tab is available online because we obtained explicit permission from Possessed or their label.


#----------------------------------PLEASE NOTE---------------------------------#
#This file is the author's own work and represents their interpretation of the #
#song. You may only use this file for private study, scholarship, or research. #
#Unless specified otherwise, this is NOT an official tab from the band members.#
#------------------------------------------------------------------------------#

  Visit MetalTabs.com for more metal tablature
  
=========================================================================================
Song: Burning in Hell
Artist: Possessed
Album: Seven Churches

Tabbed by Chris Rezendes (dudemcrude@yahoo.com)
Date started tab: 11/22/02
Date finished tab: 11/22/02

Tuning: Standard

Notation Key
~: vibrato
^: bend
.: palm mute
r: release
t: trill
p: pull-off
h: hammer-on
x: ghost note
/: slide up
\: slide down

Comments:  This one is kind of tricky.  But if you know how the song goes, you should
get it sooner or later.  Very cool song.  Very cool band.  If you spot a mistake, point
it out to me so I can fix it.

If you have any requests visit- http://groups.yahoo.com/group/realmetalmusicians/
=========================================================================================

Riff 1 x4 (all single digit notes)
e|-------------------|
B|-------------------|
G|--222-5544-001100--|
D|-------------------|
A|-------------------|
E|-------------------|

Fill 1 x1
e|-----|
B|-----|
G|--8--|
D|--8--|
A|--6--|
E|-----|

Riff 2A x2 (single one's)
e|-----------------------------------------------|
B|-----------------------------------------------|
G|-----------------------------------------------|
D|--1100000000-1100000000------------------------|
A|------------------------1100000000-1100000000--|
E|-----------------------------------------------|

e|-----------------------------------------------|
B|-----------------------------------------------|
G|-----------------------------------------------|
D|--1100000000-1100000000------------------------|
A|------------------------1100000000-1100000000--|
E|-----------------------------------------------|

e|-----------------------------------------------|
B|-----------------------------------------------|
G|-----------------------------------------------|
D|-----------------------------------------------|
A|-----------------------------------------------|
E|--0033333333-0033333333-0011111111-0011111111--|

Riff 2B x1 (single one's)
e|-----------------------------------------------|
B|-----------------------------------------------|
G|-----------------------------------------------|
D|--1100000000-1100000000------------------------|
A|------------------------1100000000-1100000000--|
E|-----------------------------------------------|

e|-----------------------------------------------|
B|-----------------------------------------------|
G|-----------------------------------------------|
D|--1100000000-1100000000------------------------|
A|------------------------11---------11----------|
E|--------------------------22222222---22222222--|

e|--------------------------------------------|
B|--------------------------------------------|
G|--------------------------------------------|
D|-------------------------------------5---6--|
A|-------------------------------------5---6--|
E|--0033333333-0033333333-0011111111---3---4--|

Riff 3A x3
   Gtr. 1 plays this      | Gtr. 2  |
e|------------------------|---------|------------------------------|
B|------------------------|--36431--|------------------------------|
G|------------------------|---------|------------------------------|
D|------------------------|---------|-----------------------5---3--|
A|------------------------|---------|-----------------------3---1--|
E|--443333-443333-443333--|---------|--443333-443333-443333--------|

Riff 3B x1
   Gtr. 1 plays this      | Gtr. 2  |
e|------------------------|---------|
B|------------------------|--36431--|
G|------------------------|---------|
D|------------------------|---------|
A|------------------------|---------|
E|--443333-443333-443333--|---------|

Riff 2C x1 (single digit notes) (under solo)
e|---------------------------------------------------------|
B|---------------------------------------------------------|
G|---------------------------------------------------------|
D|--11000000000000000000000000-----------------------------|
A|-----------------------------11000000000000000000000000--|
E|---------------------------------------------------------|

e|---------------------------------------------------------|
B|---------------------------------------------------------|
G|---------------------------------------------------------|
D|--11000000000000000000000000-----------------------------|
A|-----------------------------11000000000000000000000000--|
E|---------------------------------------------------------|

e|---------------------------------------------------------|
B|---------------------------------------------------------|
G|---------------------------------------------------------|
D|---------------------------------------------------------|
A|---------------------------------------------------------|
E|--00333333333333333333333333-01111111111111111111111111--|

Riff 2D x1 (single digit notes) (under solo)
e|---------------------------------------------------------|
B|---------------------------------------------------------|
G|---------------------------------------------------------|
D|--11000000000000000000000000-----------------------------|
A|-----------------------------11--------------------------|
E|-------------------------------222222222222222222222222--|

e|---------------------------------------------------------|
B|---------------------------------------------------------|
G|---------------------------------------------------------|
D|--11000000000000000000000000-----------------------------|
A|-----------------------------11--------------------------|
E|-------------------------------222222222222222222222222--|

e|---------------------------------------------------------|
B|---------------------------------------------------------|
G|---------------------------------------------------------|
D|---------------------------------------------------------|
A|---------------------------------------------------------|
E|--00333333333333333333333333-01111111111111111111111111--|

Fig. 1A x2
e|---------------------------------|---------------------------------|
B|---------------------------------|---------------------------------|
G|---------------------------------|---------------------------------|
D|---------------------------4--6--|---------------------------6--4--|
A|--3-3-3-3-3-3-3-3-3-3-3-3--4--6--|--3-3-3-3-3-3-3-3-3-3-3-3--6--4--|
E|--1-1-1-1-1-1-1-1-1-1-1-1--2--4--|--1-1-1-1-1-1-1-1-1-1-1-1--4--2--|
    . . . . . . . . . . . .           . . . . . . . . . . . .

Fig. 1B x2
e|---------------------------------|---------------------------------|
B|---------------------------------|---------------------------------|
G|---------------------------4--6--|---------------------------6--4--|
D|--3-3-3-3-3-3-3-3-3-3-3-3--4--6--|--3-3-3-3-3-3-3-3-3-3-3-3--6--4--|
A|--1-1-1-1-1-1-1-1-1-1-1-1--2--4--|--1-1-1-1-1-1-1-1-1-1-1-1--4--2--|
E|---------------------------------|---------------------------------|
    . . . . . . . . . . . .           . . . . . . . . . . . .

Repeat Fig. 1A x2
Repeat Fig. 1B x2
Repeat Riff 2A x2
Repeat Riff 3A x2

Riff 3c x1
   Gtr. 1 plays this      | Gtr. 2       |
e|------------------------|--------------|-------------|
B|------------------------|--36431-58653-|-------------|
G|------------------------|--------------|-------------|
D|------------------------|--------------|----------5--|
A|------------------------|--------------|----------5--|
E|--443333-443333-443333--|--------------|--443333--3--|

  Visit MetalTabs.com for more metal tablature

bottom separator

Contact Us | Privacy Policy | Disclaimer | Legal Notice
Copyright © 2001-2014 MetalTabs.com. All Rights Reserved.