top separator

Home

Forum

What's New

Submit a Tab

FAQ

Links

Contact Us

Link to Us

MuSpy.com

MetalTabs.com logo

Bands

0-9

A

B

C

D

E

F

G

H

I

J

K

L

M

N

O

P

Q

R

S

T

U

V

W

X

Y

Z

Search

What

Where
 

Possessed - "Satan's Curse" Guitar Tab

Plain Text Version
More Possessed Tabs

Hits: 4994
Rated: 3.33 out of 5 (9 votes)
Updated: 2003-04-27 18:51:28

 

By:

Chris Rezendes

sendpm.gif

email.gif

Important note
This tab is available online because we obtained explicit permission from Possessed or their label.


#----------------------------------PLEASE NOTE---------------------------------#
#This file is the author's own work and represents their interpretation of the #
#song. You may only use this file for private study, scholarship, or research. #
#Unless specified otherwise, this is NOT an official tab from the band members.#
#------------------------------------------------------------------------------#

  Visit MetalTabs.com for more metal tablature
  
Song: Satan's Curse
Artist: Possessed
Album: Seven Churches

Tabbed by Chris Rezendes (dudemcrude@yahoo.com)
Date started tab: 11/22/02
Date finished tab: 11/22/02

Tuning: Standard

Notation Key
~: vibrato
^: bend
.: palm mute
r: release
t: trill
p: pull-off
h: hammer-on
x: ghost note
/: slide up
\: slide down

Comments: How could anyone not like Possessed?  They were so awesome.  Well, this was
probably the simplest song on the entire album, and it wasn't half as hard for me to tab
this as it was for Pentagram and Seven Churches.  Expect to see Burning in Hell soon.
If you spot a mistake, point it out to me and I will fix it.  Later.

If you have any requests visit- http://groups.yahoo.com/group/realmetalmusicians/
=========================================================================================

Riff 1 x8
e|-------------------------------------------|
B|-------------------------------------------|
G|-------------------------------------------|
D|-------------------------------------------|
A|--------------------------------222222222--|
E|--111111111-444444444-333333333------------|

Fig. 1A x3
e|--------------|
B|--------------|
G|--------------|
D|--9--5--8--4--|
A|--7--3--6--2--|
E|--------------|

Fig. 1B x1
e|-----------|
B|-----------|
G|-----------|
D|--9--5--8--|
A|--7--3--6--|
E|-----------|

Repeat Riff 1 x8
Repeat Fig. 1A x3
Repeat Fig. 1B x1

Riff 2 x10
e|-------------------------------------------|
B|-------------------------------------------|
G|-------------------------------------------|
D|-------------------------------------------|
A|------------333333333-222222222-333333333--|
E|--111111111--------------------------------|

Riff 3 x4 (under)
e|-------------------------------------------|
B|-------------------------------------------|
G|-------------------------------------------|
D|----------------------222222222------------|
A|------------333333333-----------111111111--|
E|--111111111--------------------------------|

Some weird solo FX
Repeat Riff 2 x4
Repeat Fig. 1A x3
Repeat Fig. 1B x1
Repeat Riff 1 x8
Repeat Fig. 1A x3
Repeat Fig. 1B x1
Repeat Riff 2 x4
Repeat Riff 3 x1

Kill the song with this-
e|-----|
B|-----|
G|-----|
D|--3--|
A|--3--|
E|--1--|

  Visit MetalTabs.com for more metal tablature

bottom separator

Contact Us | Privacy Policy | Disclaimer | Legal Notice
Copyright © 2001-2014 MetalTabs.com. All Rights Reserved.