top separator

Home

Forum

What's New

Submit a Tab

FAQ

Links

Contact Us

Link to Us

MuSpy.com

MetalTabs.com logo

Bands

0-9

A

B

C

D

E

F

G

H

I

J

K

L

M

N

O

P

Q

R

S

T

U

V

W

X

Y

Z

Search

What

Where
 

Suffocation - "Thrones Of Blood" Guitar Tab

Plain Text Version
More Suffocation Tabs

Hits: 8381
Rated: 3.16 out of 5 (19 votes)
Updated: 2003-04-16 16:19:34

 

By:

Chris Rezendes

sendpm.gif

email.gif

Important note
This tab is available online because we obtained explicit permission from Suffocation or their label.


#----------------------------------PLEASE NOTE---------------------------------#
#This file is the author's own work and represents their interpretation of the #
#song. You may only use this file for private study, scholarship, or research. #
#Unless specified otherwise, this is NOT an official tab from the band members.#
#------------------------------------------------------------------------------#

  Visit MetalTabs.com for more metal tablature
  
=========================================================================================
Song: Thrones of Blood
Artist: Suffocation
Album: Pierced From Within

Tabbed by Chris Rezendes (dudemcrude@yahoo.com)
Date started tab: 1/23/02
Date finished tab: 1/23/02

Tuning: C (1 and one half steps down)
Copy: Final (unless somebody points out an error)

Notation Key
~: vibrato
^: bend
.: palm mute
r: release
t: trill
p: pull-off
h: hammer-on
x: ghost note
/: slide up
\: slide down

Comments: What's with all the fucking palm muting?  Geez...  Suffo must have known
somebody would try to tab this one day and as a result made it as hard to figure out as
possible.  But I think I've cracked the code.  This song absolutely rules, and
Suffocation were only like the greatest band ever.  I hope when they start writing new
shit, they remember 100% what they used to be and don't let us down, because we need more
shit like this.  Anyway, the tab came out just great, and if I happened to have made any
mistakes in here, I would appreciate it if you would point it out to me.  I've got some
more Suffocation to do, but not today, that's for damn sure.  Later.

If you have any requests visit- http://groups.yahoo.com/group/realmetalmusicians/
=========================================================================================

Fig. 1 x1
e|---------|------------|---------|------------|
B|---------|------------|---------|------------|
G|---------|------------|---------|------------|
D|--4---3--|--4--4---3--|--4---3--|--4--5---3--|
A|---4--3--|---4--4--3--|---4--3--|---4--3--3--|
E|----2-1--|----2--2-1--|----2-1--|----2--3-1--|
     ..        .. ..        ..        .. ..

e|---------|------------|---------|---------|
B|---------|------------|---------|---------|
G|---------|------------|---------|---------|
D|--4---3--|--4--4---3--|--4---3--|--4---5--|
A|---4--3--|---4--4--3--|---4--3--|---4-----|
E|----2-1--|----2--2-1--|----2-1--|----2----|
     ..        .. ..        ..        ..

Fig. 2 x1
e|---------------|---------------|-----------|---------------|------------------------|
B|---------------|---------------|-----------|---------------|------------------------|
G|---------------|---------------|-----------|---------------|------------------------|
D|--4-4--4-4--3--|--4-4--4-4--3--|--5--2--5--|--4-4--4-4--3--|--4-4--4-4--5-4-2--4-2--|
A|--4-4--4-4--3--|--4-4--4-4--3--|--5--2--5--|--4-4--4-4--3--|--4-4--4-4--5-4-2--4-2--|
E|--0-2--0-2--1--|--0-2--0-2--1--|--3--0--3--|--0-2--0-2--1--|--0-2--0-2--3-2-0--2-0--|

e|---------------|---------------|-----------|-----------------|---------|-----------|
B|---------------|---------------|-----------|-----------------|---------|-----------|
G|---------------|---------------|-----------|------------5----|--4------|-----------|
D|--4-4--4-4--3--|--4-4--4-4--3--|--5--2--5--|--4-4--4-4--5-5--|--4-4-3--|--4-3-2-3--|
A|--4-4--4-4--3--|--4-4--4-4--3--|--5--2--5--|--4-4--4-4--3-5--|--2-4-3--|--4-3-2-3--|
E|--0-2--0-2--1--|--0-2--0-2--1--|--3--0--3--|--0-2--0-2----3--|----2-1--|--2-1-0-1--|

Fig. 3 x2
e|---------------|-----------------|-----------|
B|---------------|-----------------|-----------|
G|------------5--|--------------5--|----4---5--|
D|--4-4--4-4--5--|----4-4--4-4--5--|----4---5--|
A|--4-4--4-4--3--|----4-4--4-4--3--|----2---3--|
E|--0-2--0-2-----|--0-0-2--0-2-----|--0---0----|

e|---------------|-----------------|-------------|
B|---------------|-----------------|-------------|
G|------------5--|--------------5--|----6---5----|
D|--4-4--4-4--5--|----4-4--4-4--5--|----6---5----|
A|--4-4--4-4--3--|----4-4--4-4--3--|----4---3----|
E|--0-2--0-2-----|--0-0-2--0-2-----|--0---0---0--|

Fig. 4 x2
e|---------|-----------------------|---------|------------------------|
B|---------|-----------------------|---------|------------------------|
G|---------|-----------------------|---------|------------------------|
D|--4---3--|--4---4---3------------|--4---3--|--4---5---3-------------|
A|------3--|----------3------------|------3--|----------3-------------|
E|----2-1--|----2---2-1-000000000--|----2-1--|----2---3-1-0000-3-210--|
                        .........                         ....   ...
Fig. 5 x1
e|--------------------------------------|------------------------------------|
B|--------------------------------------|------------------------------------|
G|--------------------------------------|-----------------------------4---5--|
D|--------------------------------------|-----------------------------4---5--|
A|--443---443---443---443---------------|--443---443---443---443------2---3--|
E|--221---221---221---221--0-321-0-210--|--221---221---221---221--0-1---2----|
    ...   ...   ...   ...    ...   ...     ...   ...   ...   ...  . .   .

e|--------------------------------------|-----------------------------------|
B|--------------------------------------|-----------------------------------|
G|--------------------------------------|----------------------4-----7-8----|
D|--------------------------------------|----------------------4-----7-8----|
A|--443---443---443---443---------------|--443---443---443-----2-----5-6----|
E|--221---221---221---221--0-321-0-210--|--221---221---221-1-2---3-4-----4--|
    ...   ...   ...   ...    ...   ...     ...   ...   ... . .   . .     .

Riff 1 x1
e|-----------------------------------|-----------------------------------|
B|-----------------------------------|-----------------------------------|
G|-----------------------------------|----------------------------4---5--|
D|-----------------------------------|----------------------------4---5--|
A|-----------------------------------|----------------------------2---3--|
E|--210-0-210-0-210-0-210-0-321-210--|--210-0-210-0-210-0-210-0-1---2----|
    ...   ...   ...   ...   ... ...     ...   ...   ...   ...   .   .

e|-----------------------------------|-----------------------------------|
B|-----------------------------------|-----------------------------------|
G|-----------------------------------|------------------------4-----7-8--|
D|-----------------------------------|------------------------4-----7-8--|
A|-----------------------------------|------------------------2-----5-6--|
E|--210-0-210-0-210-0-210-0-321-210--|--210-0-210-0-210-0-1-2---3-4------|
    ...   ...   ...   ...   ... ...     ...   ...   ...   . .   . .

Fig. 6 x2
e|-----------------------------------------------|
B|-----------------------------------------------|
G|--9--8-----8--7-----------7--6-----6--5--------|
D|--9--8--6--8--7--6--7--8--7--6--3--6--5--3--2--|
A|--7--6--6--6--5--6--7--8--5--4--3--4--3--3--2--|
E|--------4--------4--5--6--------1--------1--0--|

Riff 2 x1
e|------------------------------------------------------------------|
B|------------------------------------------------------------------|
G|------------------------------------------------------------------|
D|------------------------------------------------------------------|
A|--777-666-----666-555-------------555-444-----444-333-------------|
E|----------444---------444-555-666---------111---------111-000000--|
    ... ... ... ... ... ... ... ... ... ... ... ... ... ... ......

e|--------------------------------------|--------------|
B|--------------------------------------|--------------|
G|--------------------------------7--6--|--6--5--------|
D|-----------------------6--7--8--7--6--|--6--5--3--2--|
A|--777-666-----666-555--6--7--8--5--4--|--4--3--3--2--|
E|----------444----------4--5--6--------|--------1--0--|
    ... ... ... ... ...

Riff 3 x2
e|--------------------------------------------------------------------|
B|--------------------------------------------------------------------|
G|--------------------------------------------------------------------|
D|--------------------------------------------------------------------|
A|---------2-------3-------2-------6-------2-------3-------2-------5--|
E|--0000-3---000-4---000-3---000-7---000-3---000-4---000-3---000-6----|
    ....     ...     ...     ...     ...     ...     ...     ...

e|-----------------------------------------------------------------|
B|-----------------------------------------------------------------|
G|-----------------------------------------------------------------|
D|-----------------------------------------------------------------|
A|--------2-------3-------2-------6-------2-------2-3-4-3-2-3-6-5--|
E|--000-3---000-4---000-3---000-7---000-3---0000--0-1-2-1-0-1-4-3--|
    ...     ...     ...     ...     ...     ....

Riff 4 x1
e|----------------------------------|---------------------------|
B|----------------------------------|---------------------------|
G|----------------------------------|---------------------------|
D|----------------------------------|---------------------------|
A|--0000-4-3-0-2-0--0000-4-3-0-3-0--|----2-2---3-3---2-2---3-3--|
E|----------------------------------|--0-----0-----0-----0------|
    .... . . . . .  .... . . . . .     .     .     .     .

e|----------------------------------|-----------------------|
B|----------------------------------|-----------------------|
G|----------------------------------|-----------------------|
D|----------------------------------|-----------------------|
A|--0000-4-3-0-2-0--4444-8-7-4-7-4--|----2-2---3-3---2-2-4--|
E|----------------------------------|--0-----0-----0-----2--|
    .... . . . . .  .... . . . . .     .     .     .

Riff 5 x4
    Gtr. 1
  e|---------------------------|
  B|---------------------------|
  G|---------------------------|
  D|---------------------------|
  A|----2-2---3-3---2-2---3-3--|
  E|--0-----0-----0-----0------|
      .     .     .     .

    Gtr. 2
  e|---------------------------|
  B|---------------------------|
  G|---------------------------|
  D|---------------------------|
  A|----6-6---7-7---6-6---7-7--|
  E|--0-----0-----0-----0------|
      .     .     .     .

Repeat Riff 4 slightly altered, like this-
e|----------------------------------|---------------------------|
B|----------------------------------|---------------------------|
G|----------------------------------|---------------------------|
D|----------------------------------|---------------------------|
A|--0000-4-3---3----0000-4-3---3----|----2-2---3-3---2-2---3-3--|
E|-----------4---4-----------4---4--|--0-----0-----0-----0------|
    .... . . . . .  .... . . . . .     .     .     .     .

e|----------------------------------|---------------------|
B|----------------------------------|---------------------|
G|----------------------------------|---------------------|
D|----------------------------------|---------------------|
A|--0000-4-3---3----4444-8-7---7----|----2-2---3-3---2-2--|
E|-----------4---4-----------8---8--|--0-----0-----0------|
    .... . . . . .  .... . . . . .     .     .     .

Fig. 7 x2
e|--------------------------------------|------------------------|----------------|
B|--------------------------------------|------------------------|----------------|
G|--------------------------------------|------------------------|----------------|
D|--4-3-3--4-3-3--4-3-3-----------------|--4-3-3-----------------|--7-6-6--6-5-5--|
A|--4-3-3--4-3-3--4-3-3--3/4--4/5--5/6--|--4-3-3--3/4--4/5--5/6--|--5-4-4--4-3-3--|
E|--2-1-1--2-1-1--2-1-1--1/2--2/3--3/4--|--2-1-1--1/2--2/3--3/4--|-8

  Visit MetalTabs.com for more metal tablature

bottom separator

Contact Us | Privacy Policy | Disclaimer | Legal Notice
Copyright © 2001-2014 MetalTabs.com. All Rights Reserved.