top separator

Home

Forum

What's New

Submit a Tab

FAQ

Links

Contact Us

Link to Us

MuSpy.com

MetalTabs.com logo

Bands

0-9

A

B

C

D

E

F

G

H

I

J

K

L

M

N

O

P

Q

R

S

T

U

V

W

X

Y

Z

Search

What

Where
 

Suffocation - "Ornaments Of Decrepancy" Guitar Tab

Plain Text Version
More Suffocation Tabs

Hits: 4590
Rated: 3.22 out of 5 (9 votes)
Updated: 2004-07-09 06:17:23

 

By:

Chris Rezendes

sendpm.gif

email.gif

Important note
This tab is available online because we obtained explicit permission from Suffocation or their label.


#----------------------------------PLEASE NOTE---------------------------------#
#This file is the author's own work and represents their interpretation of the #
#song. You may only use this file for private study, scholarship, or research. #
#Unless specified otherwise, this is NOT an official tab from the band members.#
#------------------------------------------------------------------------------#

  Visit MetalTabs.com for more metal tablature
  
=============================================================================
Song: Ornaments of Decrepancy
Artist: Suffocation
Album: Breeding the Spawn (1993, Roadrunner)

Tabbed by Chris Rezendes (dudemcrude@yahoo.com)
Date started tab: 2/27/02
Date finished tab: 2/27/02
Updated: 7/08/04

Tuning: Db/C#
Copy: Second (Minor corrections in Riff 4, Fig. 1, and Fig. 2;
              major corrections in Riff 1, Riff 3B, Riff 5, and Riff 7;
              added Fill 1 and Riff 6B; added times)

Notation Key
~  : vibrato
^  : bend
.  : palm mute
r  : release
t  : trill
p  : pull-off
h  : hammer-on
x  : ghost note
/  : slide up
\  : slide down
>< : pinch harmonics

Comments: This song contains my very favorite Suffocation riffs, I'd probably
consider it my favorite song on the album, with this album being my favorite
death metal album ever.  If you spot a mistake, please do everybody a favor
and point it out to me so I can fix it.  Later.
=============================================================================

Fill 1 x1
e|-------------------|
B|-------------------|
G|-------------------|
D|-------------------|
A|----------3-2------|
E|--0-1-3-4-----4-3--|

Riff 1A x3
e|-----------------------------------|-------------------|------------------|
B|-----------------------------------|-------------------|------------------|
G|-----------------------------------|-------------------|------------------|
D|-----------------------------------|-------------------|--6-5-----5-4-----|
A|--1-------3-------2-------1--------|--1-------3--------|------3-2-----2-1-|
E|----1-3-4---4-3-4---3-2-3---2-1-2--|----1-3-4---4-3-4--|------------------|

Riff 1B x1
e|-----------------------------------|-------------------|--------------|
B|-----------------------------------|-------------------|--------------|
G|-----------------------------------|-------------------|-----------3--|
D|-----------------------------------|-------------------|--4--3--4--1--|
A|--1-------3-------2-------1--------|--1-------3--------|--4--3--4--1--|
E|----1-3-4---4-3-4---3-2-3---2-1-2--|----1-3-4---4-3-4--|--2--1--2-----|

            TIME- 0:18

Riff 2 x1
e|---------------------------------|---------------------------------|
B|---------------------------------|---------------------------------|
G|---------------------------------|---------------------------------|
D|---------------------------------|---------------------------------|
A|--------------------------2---1--|--------------------------5---4--|
E|--222222-111111-333333--3---2----|--222222-111111-333333--6---5----|

e|---------------------------------|---------------------------------|
B|---------------------------------|---------------------------------|
G|---------------------------------|---------------------------------|
D|---------------------------------|---------------------------------|
A|--------------------------2---1--|------------------------5---4----|
E|--222222-111111-333333--3---2----|--222222-111111-333333----6---5--|

e|---------------------------------|---------------------------------|
B|---------------------------------|---------------------------------|
G|---------------------------------|---------------------------------|
D|---------------------------------|---------------------------------|
A|--------------------------2---1--|--------------------------5---4--|
E|--222222-111111-333333--3---2----|--222222-111111-333333--6---5----|

e|---------------------------------|-----------------|
B|---------------------------------|-----------------|
G|---------------------------------|-----------------|
D|---------------------------------|-----------------|
A|--------------------------2---1--|-----------------|
E|--222222-111111-333333--3---2----|--222222-111111--|

Fill 1 x1
e|-----------|-----------|-----------|-----------|-----|-------------------|
B|-----------|-----------|-----------|-----------|-----|-------------------|
G|-----------|-----------|-----------|-----------|-----|-------------------|
D|-----------|-----------|--4---3----|-----------|--4--|-------------------|
A|--2---1----|--5---4----|----2---2--|--4---3----|--4--|-------------------|
E|----0---0--|----3---3--|-----------|----2---2--|--2--|--2-0-1-0-3-2->6<--|

            TIME- 0:38

Riff 2 x2
e|------------------------------|----------------|----------------|
B|------------------------------|----------------|----------------|
G|------------------------------|----------------|----------------|
D|----5-4----5-4----5-4----5-4--|----4-3----4-3--|----------------|
A|--2------2------2------2------|--2------2------|----5-4----2-1--|
E|------------------------------|----------------|--2------2------|

e|------------------------------|----------------|----------------|
B|------------------------------|----------------|----------------|
G|------------------------------|----------------|----------------|
D|----5-4----5-4----5-4----4-3--|----4-3---------|----------------|
A|--2------2------2------2------|--2--------4-5--|----5-4----2-1--|
E|------------------------------|---------2------|--2------2------|

Riff 3A x1
e|-------------------|-------------------|-------------------|
B|-------------------|-------------------|-------------------|
G|-------------------|-------------------|-------------------|
D|------555-444------|------444-333------|------333-222------|
A|--222---------222--|--333---------333--|--555---------555--|
E|-------------------|-------------------|-------------------|

e|-------------------|-------------------|-------------------|
B|-------------------|-------------------|-------------------|
G|-------------------|-------------------|-------------------|
D|------555-444------|------555-444------|------444-333------|
A|--333---------333--|--222---------222--|--333---------333--|
E|-------------------|-------------------|-------------------|

e|-------------------|-------------------|
B|-------------------|-------------------|
G|-------------------|-------------------|
D|------333-222------|-------------------|
A|--555---------555--|-------------------|
E|-------------------|--3-2-0-2-6-5-3-5--|
                        . . . . . . . .

            TIME- 1:07

Riff 3B x1
e|-------------------|-------------------|-------------------|
B|-------------------|-------------------|-------------------|
G|-------------------|-------------------|-------------------|
D|-------------------|-------------------|-------------------|
A|------222-111------|------111-000------|-------------------|
E|--111---------111--|--222---------222--|--333-555-444-222--|

e|-------------------|-------------------|-------------------|
B|-------------------|-------------------|-------------------|
G|-------------------|-------------------|-------------------|
D|------444-333------|-------------------|-------------------|
A|-------------------|------222-111------|------111-000------|
E|--111---------222--|--111---------111--|--222---------222--|

e|-------------------|--------------|
B|-------------------|--------------|
G|-------------------|-----------6--|
D|-------------------|--5--4--5--6--|
A|-------------------|--5--4--5--4--|
E|--333-555-444-222--|--3--2--3-----|

Riff 4 x1
e|------------------|-------------------|------------------|
B|------------------|-------------------|------------------|
G|------------------|-------------------|------------------|
D|------------------|------------4---2--|------------------|
A|------------------|-------------------|------------------|
E|--1-0-1-2-333333--|--1-0-1-2-3---0----|--1-0-1-2-333333--|

e|-----------------|------------------|-------------------|
B|--------------4--|------------------|-------------------|
G|------------2----|------------------|-------------------|
D|--4-2-1-2-3------|------------------|------------4---2--|
A|-----------------|------------------|-------------------|
E|-----------------|--1-0-1-2-333333--|--1-0-1-2-3---0----|

e|------------------|-------------------|------------------|
B|------------------|-------------------|------------------|
G|------------------|--6-------5--------|------------------|
D|------------------|----5---4---4---3--|------------------|
A|------------------|------4-------3----|------------------|
E|--1-0-1-2-333333--|-------------------|--1-0-1-2-333333--|

e|-------------------|------------------|-----------------|
B|-------------------|------------------|--------------4--|
G|-------------------|------------------|------------2----|
D|------------4---2--|------------------|--4-2-1-2-3------|
A|-------------------|------------------|-----------------|
E|--1-0-1-2-3---0----|--1-0-1-2-333333--|-----------------|

e|------------------|-------------------|------------------|
B|------------------|-------------------|------------------|
G|------------------|-------------------|------------------|
D|------------------|------------4---2--|------------------|
A|------------------|-------------------|------------------|
E|--1-0-1-2-333333--|--1-0-1-2-3---0----|--1-0-1-2-333333--|

e|-------------------|-------------------|-------------------|-----|
B|-------------------|-------------------|-------------------|-----|
G|--6----------------|--5----------------|-------------------|--3--|
D|----5---5---4---3--|----4---4---3---2--|----3---2-4--------|--3--|
A|------4---5---4----|------3---4---3----|--4---3-----3---3--|--1--|
E|-------------------|-------------------|--------------4----|-----|

            TIME- 1:36

Fig. 1 x1
e|--------------------------|-------------------------|--------------|
B|--------------------------|-------------------------|--------------|
G|--------------------------|-------------------------|--------------|
D|--3-2-------3-2-----------|--5--4--3--2/1-1---------|----------6~--|
A|--3-2----3--3-2----3---2--|--5--4--3-----------3-2--|--4-4-4-4-----|
E|--1-0--4----1-0--4---3----|--3--2--1---------3------|--2-2-2-2-----|

e|--------------------------|-------------|--------------------------------|
B|--------------------------|-------------|--------------------------------|
G|--------------------------|-------------|--------------------------------|
D|--3-2-------3-2-----------|--5--4----3--|---------------------------5-4--|
A|--3-2----3--3-2----3---2--|--5----3--3--|--1/2--2/11--11\10--10\5--------|
E|--1-0--4----1-0--4---3----|--3-------1--|-------------------------6------|

e|------------------|--------------------------|-------------------------|
B|------------------|--------------------------|-------------------------|
G|------------------|--------------------------|-------------------------|
D|----------6~---5~-|--3-2-------3-2-----------|--5--4--3--2/1-1---------|
A|--6-6-6-6----5----|--3-2----3--3-2----3---2--|--5--4--3-----------3-2--|
E|--4-4-4-4----3----|--1-0--4----1-0--4---3----|--3--2--1---------3------|

e|--------------|--------------------------|-------------|
B|--------------|--------------------------|-------------|
G|--------------|--------------------------|-------------|
D|----------5~--|--3-2-------3-2-----------|--5--4----3--|
A|--4-4-4-4-----|--3-2----3--3-2----3---2--|--5----3--3--|
E|--2-2-2-2-----|--1-0--4----1-0--4---3----|--3-------1--|

e|------------------------------------|
B|------------------------------------|
G|------------------------------------|
D|---------------------------5-4---3--|
A|--1/2--2/11--11\10--10\5------------|
E|-------------------------6----------|

            TIME- 2:04

Riff 5A x1
e|-------------------------|-----------------------------------|
B|-------------------------|-----------------------------------|
G|-------------------------|-----------------------------------|
D|--------------------3t4--|-----------------------------------|
A|--666666-555555---4------|--555-444---------444-333----------|
E|----------------5--------|----------333-222---------222-111--|

e|-------------------------|-----------------------------------|
B|-------------------------|-----------------------------------|
G|-------------------------|-----------------------------------|
D|--------------------1t2--|--------------222-111-----111-000--|
A|--444444-333333---2------|--333-----333---------222----------|
E|----------------3--------|------444--------------------------|

e|-------------------------|-----------------------------------|
B|-------------------------|-----------------------------------|
G|-------------------------|-----------------------------------|
D|--------------------3t4--|--------------------------333-222--|
A|--666666-555555---4------|--555-444---------444-333----------|
E|----------------5--------|----------333-222------------------|

e|-----------------------|-----------------------------------|
B|-----------------------|-----------------------------------|
G|-----------------------|--------------------------444-333--|
D|------------------2-1--|----------------------222----------|
A|--44444-33333---2------|--222-111-666-555-333--------------|
E|--------------3--------|-----------------------------------|
                . . . .

e|-------------------------|-----------------------------------|
B|-------------------------|-----------------------------------|
G|-------------------------|-----------------------------------|
D|--------------------3t4--|-----------------------------------|
A|--666666-555555---4------|--555-444---------444-333----------|
E|----------------5--------|----------333-222---------222-111--|

e|-------------------------|-----------------------------------|
B|-------------------------|-----------------------------------|
G|-------------------------|-----------------------------------|
D|--------------------1t2--|--------------222-111-----111-000--|
A|--444444-333333---2------|--333-----333---------222----------|
E|----------------3--------|------444--------------------------|

e|-------------------------|-----------------------------------|
B|-------------------------|-----------------------------------|
G|-------------------------|-----------------------------------|
D|--------------------3t4--|--------------------------333-222--|
A|--666666-555555---4------|--555-444---------444-333----------|
E|----------------5--------|----------333-222------------------|

e|--------------------------|-------------------------------|
B|--------------------------|-------------------------------|
G|--------------------------|-------------------------------|
D|--------------------2-1---|-------------------7--6--5--6--|
A|--444444-333333---2-------|--222-111-666-555--7--6--5--6--|
E|----------------3---------|-------------------5--4--3--4--|
                  . . . .                       .  .  .  .

            TIME- 2:36

Riff 6A x3
e|---------------|---------------|---------------------------|
B|---------------|---------------|---------------------------|
G|---------------|---------------|---------------------------|
D|------3---4----|------3---4----|------4---5---6---6--------|
A|---------------|---------------|---------------------------|
E|--1-1---1---2--|--1-1---1---2--|--2-2---2---3---4---4-3-2--|

Riff 6B x1
e|---------------|---------------|---------------------------|
B|---------------|---------------|---------------------------|
G|---------------|---------------|---------------------------|
D|------3---4----|------3---4----|------4---5---5-----6------|
A|---------------|---------------|----------------6-----7----|
E|--1-1---1---2--|--1-1---1---2--|--2-2---2---3-----7-----8--|

Riff 7A x1 (under solo)
e|---------------------------|
B|---------------------------|
G|---------------------------|
D|---------------------------|
A|----------------------4-4--|
E|--111111-2-111111-2-1-2-2--|

            TIME- 2:54

Riff 7B x3 (under solo)
e|-------------------------------------|------------------|
B|-------------------------------------|------------------|
G|-------------------------------------|------------------|
D|-------------------------------------|------------------|
A|-------------------------------------|-------------4-4--|
E|--111111-3-2-000-1-0-111111-3-2-1-2--|--111111-2-1-2-2--|

Riff 7C x1 (under solo)
e|------------------------|
B|------------------------|
G|------------------------|
D|-------------2-----1----|
A|---------------3-----3--|
E|--111111-3-2-----4------|

Riff 6A x3
e|---------------|---------------|---------------------------|
B|---------------|---------------|---------------------------|
G|---------------|---------------|---------------------------|
D|------3---4----|------3---4----|------4---5---6---6--------|
A|---------------|---------------|---------------------------|
E|--1-1---1---2--|--1-1---1---2--|--2-2---2---3---4---4-3-2--|

Riff 6B x1
e|---------------|---------------|---------------------------|
B|---------------|---------------|---------------------------|
G|---------------|---------------|---------------------------|
D|------3---4----|------3---4----|------4---5---5-----6------|
A|---------------|---------------|----------------6-----7----|
E|--1-1---1---2--|--1-1---1---2--|--2-2---2---3-----7-----8--|

            TIME- 3:21

Fig. 2 x1
e|--------------------------------|-----------------------------------------|
B|--------------------------------|-----------------------------------------|
G|--------------------------------|----------------4-5-4-3-4-3--------------|
D|--3-4-4--3-4-4--3-4-4--6-5--3~--|--3-4-4--3-4-4--------------6-7-6-4-6-5--|
A|--3-2-4--3-2-4--3-2-4--6-5------|--3-2-4--3-2-4---------------------------|
E|--1-2-2--1-2-2--1-2-2--4-3------|--1-2-2--1-2-2---------------------------|

e|--------------------------------|-------------------------------------|
B|--------------------------------|-------------------------------------|
G|--------------------------------|-------------------------------------|
D|--3-4-4--3-4-4--3-4-4--6-5--3~--|--3-4-4--3-4-4--6-------6-5-------4--|
A|--3-2-4--3-2-4--3-2-4--6-5------|--3-2-4--3-2-4--6--5t6--6-5--3t4--4--|
E|--1-2-2--1-2-2--1-2-2--4-3------|--1-2-2--1-2-2--4-------4-3-------2--|

e|--------------------------------|-----------------------------------------|
B|--------------------------------|-----------------------------------------|
G|--------------------------------|-----------------------------------------|
D|--3-4-4--3-4-4--3-4-4--6-5--3~--|--3-4-4--3-4-4--2-3-2-1-2-1--------------|
A|--3-2-4--3-2-4--3-2-4--6-5------|--3-2-4--3-2-4--------------4-5-4-2-4-3--|
E|--1-2-2--1-2-2--1-2-2--4-3------|--1-2-2--1-2-2---------------------------|

e|--------------------------------|-------------------------------------|
B|--------------------------------|-------------------------------------|
G|--------------------------------|-------------------------------------|
D|--3-4-4--3-4-4--3-4-4--6-5--3~--|--3-4-4--3-4-4--6-------6-5-------4--|
A|--3-2-4--3-2-4--3-2-4--6-5------|--3-2-4--3-2-4--6--5t6--6-5--3t4--4--|
E|--1-2-2--1-2-2--1-2-2--4-3------|--1-2-2--1-2-2--4-------4-3-------2--|

            TIME- 4:05

Riff 5B x1
e|-------------------------|-----------------------------------|
B|-------------------------|-----------------------------------|
G|-------------------------|-----------------------------------|
D|--------------------3t4--|-----------------------------------|
A|--666666-555555---4------|--555-444---------444-333----------|
E|----------------5--------|----------333-222---------222-111--|

e|-------------------------|-----------------------------------|
B|-------------------------|-----------------------------------|
G|-------------------------|-----------------------------------|
D|--------------------1t2--|--------------222-111-----111-000--|
A|--444444-333333---2------|--333-----333---------222----------|
E|----------------3--------|------444--------------------------|

e|-------------------------|-----------------------------------|
B|-------------------------|-----------------------------------|
G|-------------------------|-----------------------------------|
D|--------------------3t4--|--------------------------333-222--|
A|--666666-555555---4------|--555-444---------444-333----------|
E|----------------5--------|----------333-222------------------|

e|-------------------------|
B|-------------------------|
G|-------------------------|
D|--------------------2-1--|
A|--444444-333333---2------|
E|----------------3--------|
                  . . . .

            TIME- 4:19

Riff 7 x1
e|------------------------------------------------------------------|
B|------------------------------------------------------------------|
G|-------------------------------------------------------------666--|
D|--777777-------------------------888-777-----777---------777------|
A|-------------888---------777-888---------888-----777-888----------|
E|---------555-----555-666------------------------------------------|

e|------------------------------------------------------------------|
B|------------------------------------------------------------------|
G|------------------------------------------------------------------|
D|--444444-------------------------555-444-----444---------333-666--|
A|-------------------------444-555---------555---------444----------|
E|---------222-333-222-333-------------------------555--------------|

e|------------------------------------------------------------------|
B|-------------------------------------------------------------555--|
G|---------------------------------------------------------666------|
D|--777777-------------------------888-777-----777-----777----------|
A|-------------888---------777-888---------888-----888--------------|
E|---------555-----555-666------------------------------------------|

e|----------------------------------------------------------------|
B|----------------------------------------------------------------|
G|----------------------------------------------------------------|
D|--444444-------------------------555-444-----444-333------3--2--|
A|-------------------------444-555---------555---------444--3--2--|
E|---------222-333-222-333----------------------------------1--0--|

            TIME- 4:36

  Visit MetalTabs.com for more metal tablature

bottom separator

Contact Us | Privacy Policy | Disclaimer | Legal Notice
Copyright © 2001-2014 MetalTabs.com. All Rights Reserved.