top separator

Home

Forum

What's New

Submit a Tab

FAQ

Links

Contact Us

Link to Us

MetalTabs.com logo

Bands

0-9

A

B

C

D

E

F

G

H

I

J

K

L

M

N

O

P

Q

R

S

T

U

V

W

X

Y

Z

Search

What

Where
 

Resurrection - "Smell Of Blood" Guitar Tab

Plain Text Version
More Resurrection Tabs

Hits: 3800
Updated: 2008-01-05 04:38:30

 

By:

damonta

sendpm.gif

email.gif

Important note
This tab is available online because we obtained explicit permission from Resurrection or their label.


#----------------------------------PLEASE NOTE---------------------------------#
#This file is the author's own work and represents their interpretation of the #
#song. You may only use this file for private study, scholarship, or research. #
#Unless specified otherwise, this is NOT an official tab from the band members.#
#------------------------------------------------------------------------------#

  Visit MetalTabs.com for more metal tablature
  
Resurrection
	Smell the Blood
	Embalmed Existance 1992 NBR
	Composed by John Astl
	Tabbed by damonta

-riff1---------|----------------|---------------|-------------4x-
---------------|----------------|---------------|----------------
---------------|----------------|---------------|--------------.-
---------5\4---|------------4/5-|---------5\4---|--------4-----.-
-4-------3\2---|-4--4--4--4-2/3-|-4-------3\2---|-4------2-------
-2-2-2-2-3\2-0-|-2--2--2--2-2/3-|-2-2-2-2-3\2-0-|-2----2-2-------


--riff2----------------------7x--|
---------------------------------|
.-------------------------------.|
.-7\6------------5\4------------.|
--5\4--4-5\4-4/5-3\2-3-3-3-3-3/4-|
-------2-3\2-2/3-----1-1-1-1-1/2-|

--riff3--------------------------|-riff2-6x-|------
-palm-mute-----------------------|----------|------
.-------------------------------.|----------|------
.5-4-----5-4--------------------.|----------|-5--4-
-3-2-4-5-3-2-4-5-6-5-6-7-8-7-8-9-|----------|-3--2-
-----2-3-----2-3-4-3-4-5-6-5-6-7-|----------|-3--2-

---riff4---------------------------------------------------------
---palm-mute-----------------------------------------------------
-----------------------------------------------------------------
-5-----------------------------------------------------------3--5
-3-2-3-4-2-4-3-2-3-4-2-4-3-2-3-4-5-2-3-4-2-4-3-2-3-4-2-4-3-2-1-43
---0-1-2-0-2-1-0-1-2-0-2-1-0-1-2-3-0-1-2-0-2-1-0-1-2-0-2-1-0---2-

--riff5----------------------------|-riff5---5x------------------
---PM------------------------------|-no-PM-----------------------
.---------------------------------.|-----------------------------
.--------------------------3----5-.|-----------------------------
-2-3-4-2-4-3-2-3-4-2-4-3-2-1--4-3--|-----------------------------
-0-1-2-0-2-1-0-1-2-0-2-1-0----2----|-----------------------------

--solo1-rythem--|----------------|----------------|--------------
----------------|----------------|----------------|--------------
----------------|----------------|----------------|--------------
----------5\4---|------------4/5-|----------5\4---|--------5-----
----------3\2---|-4--4--4--4-2/3-|----------3\2---|-4----4-3-----
-22222222-3\2-0-|-2--2--2--2-2/3-|-22222222-3\2-0-|-2----2-3-----

--solo1-------|------------^-^-^-----^-^-^------|
---------1213-|-/18-17~~-17181715--17181715-17--|
-/10-9--------|---------------------------------|
--------------|---------------------------------|
--------------|---------------------------------|
--------------|---------------------------------|

-----16------------------|----19------18~~~--18\|
-1718--1815-----^--------|--17------17--bar--17\|
-----------17-1716-16~~--|16------16------------|
-------------------------|----------------------|
-------------------------|----------------------|
-------------------------|----------------------|

-----------------------------|-----------------------------------
----^--------^---------------|--PM-------------------------------
-4-54---4--454---4-4/5-7\5-4-|-----------------------------------
------7--------7-------------|-754754-54---^---------------------
-----------------------------|-------7--7532--^---)--------------
-----------------------------|---------------353-2---------------
                       +1
-----------------------ph-|-riff3-|-solo2-rythem-p1--------------
---7-6----8-7---7-------)-|-riff2-|-------------------4x---------
--5------6-----5--5-4--2--|-------|------------------------------
-4------5-----4-----------|-------|-7-6--------------------------
--------------------------|-------|-5-4----------3---------------
--------------------------|-------|-5-4-00000000-1---------------

-solo2-rythem-p2---|------------4x-|-p1---------------------------
-------------------|---------------|-p2---------------------------
-------------------|---------------|------------------------------
-------------------|-------------5-|------------------------------
-------------------|-------------3-|------------------------------
-22222222222232222-|222222223222-3-|------------------------------

  Visit MetalTabs.com for more metal tablature

bottom separator

Contact Us | Privacy Policy | Disclaimer | Legal Notice
Copyright © 2001-2014 MetalTabs.com. All Rights Reserved.