top separator

Home

Forum

FAQ

Contact Us

Link to Us

MetalTabs.com logo

Bands

0-9

A

B

C

D

E

F

G

H

I

J

K

L

M

N

O

P

Q

R

S

T

U

V

W

X

Y

Z

King Diamond - "Halloween" Guitar Tab

Plain Text Version
More King Diamond Tabs

Hits: 4092
Rated: 4.60 out of 5 (5 votes)
Updated: 2003-04-16 15:24:34


#----------------------------------PLEASE NOTE---------------------------------#
#This file is the author's own work and represents their interpretation of the #
#song. You may only use this file for private study, scholarship, or research. #
#Unless specified otherwise, this is NOT an official tab from the band members.#
#------------------------------------------------------------------------------#

  Visit MetalTabs.com for more metal tablature
  
Band:  King Diamond
Album: Fatal Portrait
Song:  Halloween

18/02/03

Transcribed By: Israel Iracheta
Email:          i_iracheta@hotmail.com


.  - palm mute           /  - slide up to
\  - slide down to       ~  - vibrato
h  - hammer on           b  - Bend
p  - pull off            Suffixes for bend
t  - tap                 f  - full bend    h - half bend
ph - pinched harmonic    q  - quarter bend t - tap bend
*  - see comment         ^  - Hold bend    r release bend
x  - Stuccatto           ~  - vibrato bend
,  - slight palm mute    () - ghost note, sustained note
"  - tremolo note        <> - Trill

Tunning E A D G

Intro guitar

  Riff 1                           1,2,3,4,5         6
|---------------------------------|----------|------------------------|
|---------------------------------|----------|------------------------|
|-7-7-7-7-7-7-7-7-7-7-7-7-7-7-7-7|(5)-(3)--|---(5)--3-0-------------|
|---------------------------------|----------|------------------------|
  Riff 2
|-------------------------------------------------------------------|
|-----------------------------2-------------------------------------|
|-0-(2)-2-2-3-2-0-(2)-2-2-2-5---(2)-2-2-3-2-0-(1)-1-1-1-1-1-1-1-----|
|-------------------------------------------------------------------|

|-------------------------------------------------------------------|
|---------------------------2---------------------------------------|
|-(2)-2-2-3-2-0-(2)-2-2-2-5---(2)-2-2-2-2-2-2-(1)-1-1-1-1-1-1-1-----|
|-------------------------------------------------------------------|

 repeat riff 1 (5 times)
                 6    solo 1
|-------------------|---------------------------------------------------|
|--------------5-7--|----------------------5-4--------------------------|
|--------5-7-8------|--7-(7)-0-3-(5)-5-5-5-----7-(7)-0-3-(5)-5-5--------|
|--5-7-8------------|--------------------------------------------0-3-5--|

                                                    2 times from solo 1
|---------------------------------------------------------------------|
|---------------------5-4---------------------------------------------|
|-7-(7)-0-3-(5)-5-5-5-----7-(7)-0-3-(5)-5-5-5-------------------------|
|---------------------------------------------8-7-6-5-----------------|

repeat riff 2



 solo 2       	x2
|---------------------------------------------------------------|
|-------------------------2-4-----------------------------------|
|-(4)-4-4-5-4-2-(4)-4-4-4-----(4)-4-4-5-4-2-4-------5-----------|
|---------------------------------------------5-6-7---7-6-5-----|
	x2
|---------------------------------------------------------------|
|---------------------------------------------------------------|
|-------------------------2-4-----------------------5-----------|
|-(4)-4-4-5-4-2-(4)-4-4-4-----(4)-4-4-5-4-2-4-5-6-7---7-6-5-----|

 riff 1
	x4
|-----------------------------------------------------0--------|
|-----------------------------------------------0-1-2---2-1-0--|
|-------------------------------------------3-2----------------|
|-3-2-2-2-3-2-3-(2)-2-2-2-0-(3)-3-2-2-2-3-2--------------------|

|------------------------------------------|------------------------|
|------------------------------------------|------------------------|
|-7-7-7-7-7-7-7-7-7-7-7-7-7-7-7-7(5)-(3)--|-(7)-7-8-7-5-7----------|
|------------------------------------------|------------------------|


END

  Visit MetalTabs.com for more metal tablature

bottom separator

Contact Us | Privacy Policy | Disclaimer
Copyright © 2001-2014 MetalTabs.com. All Rights Reserved.