top separator

Home

Forum

What's New

Submit a Tab

FAQ

Links

Contact Us

Link to Us

MetalTabs.com logo

Bands

0-9

A

B

C

D

E

F

G

H

I

J

K

L

M

N

O

P

Q

R

S

T

U

V

W

X

Y

Z

Search

What

Where
 

Resurrection - "Eyes Of Blind" Guitar Tab

Plain Text Version
More Resurrection Tabs

Hits: 3456
Updated: 2008-01-05 04:39:18

 

By:

damonta

sendpm.gif

email.gif

Important note
This tab is available online because we obtained explicit permission from Resurrection or their label.


#----------------------------------PLEASE NOTE---------------------------------#
#This file is the author's own work and represents their interpretation of the #
#song. You may only use this file for private study, scholarship, or research. #
#Unless specified otherwise, this is NOT an official tab from the band members.#
#------------------------------------------------------------------------------#

  Visit MetalTabs.com for more metal tablature
  
Resurrection
	Eyes of Blind
	Embalmed Existance 1992 NBA
	Composed by John Astl
	Tabbed by damonta	,=1/8rest  !=1/4rest tune to D

-riff1------------------|------------------------------
------------------------|------------------------------
.-----------------------|------------------------------
.------------------,--!-|-----------------4-----5------
-----------------4------|-----------------2--4--3------
-2-2-2-2-3-3-0-0-2------|-2-2-2-2-3-3-0-0-2--2--3------

------------------------|------------------------------
------------------------|------------------------------
------------------------|---------------------------.--
-------------------,--!-|-----------------4---5-----.--
-----------------4------|-----------------2---3--------
-2-2-2-2-3-3-0-0-2------|-2-2-2-2-3-3-0-0-2---3--------

-riff2-------------------------|-----------------------
-------------------------------|-----------------------
.------------------------------|-----------------------
.------------------------------|----------------4---5--
-------------------------------|----------------2-4-3--
2-2-2-2-3-3-0-0-2-2-2-2-2-2-2-2|2-2-2-2-3-3-0-0-2-2-3--

-------------------------------|--------------------4x-
-------------------------------|-----------------------
-------------------------------|---------------------.-
-------------------------------|----------------4--5-.-
-------------------------------|----------------2--3---
2-2-2-2-3-3-0-0-2-2-2-2-2-2-2-2|2-2-2-2-3-3-0-0-2--3---

-riff1-
-riff2-

-----------|-riff3---------------|------------------6x-
-----------|---------------------|---------------------
-----------|.--------------------|--------------------.
-2---------|.--------------------|--------------------.
-2-------s-|------------------4/5|-----------------5\4-
-0-------\-|-0000-2000-0030-202/3|0000-2000-0030-203\2-

----------|-riff5--------------------------------------
----------|--------------------------------------------
----------|.-------------------------------------------
----------|.-------------------------------------------
-5-4----3-|--------------------------------4/5---------
-3-2-00-1-|-00000000-20000000-00003000-20002/3---------
                   _____________________________
                                1.  | 2.
------------------------------------|------------------
------------------------------------|------------------
-----------------------------------.|------------------
-----------------------------------.|------------------
--------------------------------5\4-|-5-4----3---------
-00000000-20000000-00003000-20003\2-|-3-2-00-1---------

-riff6----------------------------------------|-riff2--
----------------------------------------------|--------
.--------------------------------------------.|--------
.-2--2------2---------2--2------2--2---------.|--------
--2--2--3-3-2--2--5-3-2--2--3-3-2--2--5-4-2-3-|--------
--0--0--1-1-0--0--3-1-0--0--1-1-0--0--3-2-0-1-|--------

--riff7-----------------------|------------------------
------------------------------|------------------------
.-----------------------------|------------------------
.------------------------4---5|------------------------
-------------------------2-4-3|------------------------
-2222222222222222222222222-2-3|222222222222222222222222

-------|-riff1-|-----
-------|-------|-----
------.|-------|-----
-4--5-.|-------|-----
-2--3--|-------|-4-4-
-2--3--|-------|-2-2-

-------------------------|--------------------------3x-
-------------------------|-----------------------------
-------------------------|.-------------------------.--
-------------------3-2---|.-------------------------.--
-------111111------1-0-3-|-------111111-------1100-----
-000000------000000----1-|-000000------000000-----11---

---------------------8x-|-----------------------------
------------------------|-----------------------------
.----------------------.|-----------------------------
.------------------3-2-.|5-4-----5-7------------------
-2-----1-00--2-----1-0-5|3-2-4-5-3-5-2--2--2-33-3-33-3
-0-3320----320-3320----3|----2-3-----0--0--0-11-1-11-1
                 ________________________
                   1.-3.  | 2.  | 4.
-riff8--------------------|-----|----------------------
--------------------------|-----|----------------------
--------------------------|-----|----------------------
----3---3---3---3---------|-----|-3--------------------
-232123212321232133-3-33-3|-3-3-|-3--------------------
-010-010-010-010-11-1-11-1|-1-1-|-1--------------------

-solo-----+1---|-121312--^-----------------------------
-riff8-hm-/-\--|-------1512----------------------------
------(17)---'1|-----------------------^---^-----------
----------bar--|------------14-14141415141514--^--14---
---------------|------------------------------1415-----
---------------|---------------------------------------
                  +2-1/2
------------------/------------------------------------
------------hm--/--------------------------------------
------bar--(16)/---------------------------------------
-12-14\------------------------------------------------
-------\-----------------------------------------------
-------------------------------------------------------

---------------------|---------------------------------
---------------------|---------------------------------
---------------------|---------------------------------
---------------------|-------------------3-------------
------5---4----5-4-2-|------5---4----5-4-1-------------
-0000-3-0-2--0-3-2-0-|-0000-3-0-2--0-3-2---------------

  Visit MetalTabs.com for more metal tablature

bottom separator

Contact Us | Privacy Policy | Disclaimer | Legal Notice
Copyright © 2001-2014 MetalTabs.com. All Rights Reserved.