top separator

Home

Forum

What's New

Submit a Tab

FAQ

Links

Contact Us

Link to Us

MetalTabs.com logo

Bands

0-9

A

B

C

D

E

F

G

H

I

J

K

L

M

N

O

P

Q

R

S

T

U

V

W

X

Y

Z

Search

What

Where
 

Burzum - "Dominus Sathanas" Guitar Tab

Plain Text Version
More Burzum Tabs

Hits: 10938
Rated: 3.73 out of 5 (15 votes)
Updated: 2003-04-16 15:10:15

 

Important note
This tab is available online because we obtained explicit permission from Burzum or their label.


#----------------------------------PLEASE NOTE---------------------------------#
#This file is the author's own work and represents their interpretation of the #
#song. You may only use this file for private study, scholarship, or research. #
#Unless specified otherwise, this is NOT an official tab from the band members.#
#------------------------------------------------------------------------------#

  Visit MetalTabs.com for more metal tablature
  
song title: Dominus Sathanas
artist:     Burzum
cd:         Aske
tabbed by:  Satanized666
email:      satanized_666@hotmail.com

I know, this tab isn't 100%accurate...

-=listen to the song for timing=-

|-----------------------------|
|-----------------------------|
|-----------------------------|
|-----------------------------|
|-----------------------3-2---|
|-1-0-1-4--1----1-0-1-4-----4-|

|---------------------------------------|
|---------------------------------------|
|---------------------------------------|
|-2----3--5--2----3--5--2--------3----2-|
|-2----3--5--2----3--5--2--------3----2-|
|-0----1--3--0----1--3--0--------1----0-|
          |          |                |
          \__bend slightly            \AAAARRRRGGGHH!!!!


|------------------------|---------------|
|------------------------|---------------|
|------------------------|---------------|
|------------------------|---------------|
|-------3-----2--2-2-2-2-|---------------|
|-2-3-2---2-3-0--0-0-0-0-|-2-3-2-5-3-2-0-|
                 . . . .

|--------------------------------|
|--------------------------------|
|--------------------------------|
|------------------------4-5-4---|
|---2-3-2----------2-3-2-------3-|
|-0-------3--3-2-1---------------|


lead part at the end:
2:08

|-----------------------------------------------------------------------------------
|-----------------------------------------------------------------------------------
|-----------------------------------------------------------------------------------
|------8--------11-8-10--------10-11-10-8-10--------10-11-10-8----------------------
|-10\9---------------------------------------------------------7--------10-9-7-10-9-
|-----------------------------------------------------------------------------------

|-----------------------------------------------------|
|-----------------------------------------------------|
|-----------------------------------------------------|
|-7---------------------------------------------------|
|---10-9-7----7--------9-10-9----7--------9-10-9----7-|
|----------10-----------------10-----------------10---|

  Visit MetalTabs.com for more metal tablature

bottom separator

Contact Us | Privacy Policy | Disclaimer | Legal Notice
Copyright © 2001-2014 MetalTabs.com. All Rights Reserved.