top separator

Home

Forum

What's New

Submit a Tab

FAQ

Links

Contact Us

Link to Us

MuSpy.com

MetalTabs.com logo

Bands

0-9

A

B

C

D

E

F

G

H

I

J

K

L

M

N

O

P

Q

R

S

T

U

V

W

X

Y

Z

Search

What

Where
 

Burzum - "Unfinne Oppfatning / Lost Wisdom" Guitar Tab

Plain Text Version
More Burzum Tabs

Hits: 18220
Rated: 4.35 out of 5 (20 votes)
Updated: 2003-04-16 15:09:11

 

By:

Nidhoegrr

sendpm.gif

email.gif

Important note
This tab is available online because we obtained explicit permission from Burzum or their label.


#----------------------------------PLEASE NOTE---------------------------------#
#This file is the author's own work and represents their interpretation of the #
#song. You may only use this file for private study, scholarship, or research. #
#Unless specified otherwise, this is NOT an official tab from the band members.#
#------------------------------------------------------------------------------#

  Visit MetalTabs.com for more metal tablature
  
Title: Lost of Wisdom
Interpret: Burzum
Album: Det Som Engang Var


tapped by Nidhoegrr(Berndsworld@gmx.de)


m	= palm muted
b
^	= bending
^	= pulloff
/	= slide



Riff 1:

git 1 + 2                         a
|------------------------------|------|
|------------------------------|------|
|------------------------------|------|
|------------56---------3------|-2----|
|---2--------56---2-----3--b---|-2----|
|-0---0-3-00-34-0---0-3-1-2^3-2|-0----|
          m                      1


Riff 2:

git 1 + 2

|-------------------------------------|
|-------------------------------------|
|-------------------------------------|
|-2-2-2-2^5-5-5-5-5-4-4-4-4-4-4^5-5-4-|
|-2-2-2-2---2-2-2-2-3-3-3-3-3-3---3-3-|
|-------------------------------------|


Riff 3:

git 1 + 2

|------------------------|
|------------------------|
|------------------------|
|------------------------|
|-7-----------7----------|
|----7/-2-3-5----7/-2-323|
                      mmm

Riff 4:

git 1

|-----------------------------|
|-----------------------------|
|-----------------------------|
|-----------------------------|
|-----------------------------|
|-787-87-/2--3-5-787-87-/2-5-3|
|                             |
git 2                         |
|                             |
|-----------------------------|
|-----------------------------|
|-----------------------------|
|-----54-------------54----7-5|
|-232-----4--5-7-232-----4----|
|-----------------------------|


Riff 5:

git 1

|-------------------------|
|-------------------------|
|-------------------------|
|9-----------9------------|
|7-----------7------------|
|---7/-2-3-5----7/-2-323--|
|                         |
git 2                     |
|                         |
|-------------------------|
|-------------------------|
|-------------------------|
|-------------------------|
|7-10------7-7-10---------|
|------910---------9-10910|


Solo:

git 1:

|-------------------------------|
|-------------------------------|
|-------------------------------|
|4-4-4-477-7-7-766-6-6-666-6-7-6|
|2-2-2-255-5-5-544-4-4-444-4-5-4|
|-------------------------------|


git 2:

|---------------------------------------------------------------|
|------------------------------------------------------------8-7|
|4-4-4-477-7-7-766-6-6-666-6-7-6-4-4-4-477-7-7-766-6-6-666-6----|
|---------------------------------------------------------------|
|---------------------------------------------------------------|
|---------------------------------------------------------------|



- Riff 1 is played 2 times, part a only played on second time and only by git 1,
  while git 2 plays Riff 2
- Riff 2 is played 2 times only by git 2
- Riff 2 is played 6 times by git 1 + 2
- Riff 1 is played 2 times whithout part a
- Riff 2 is played 6 times by git 1 + 2
- Riff 3 is played 2 times
- Riff 4 is played 2 times
- Riff 5 is played 2 times
- Solo:		git 1 plays 4 times its part
		git 2 plays 2 times its part
- Riff 1 is played 2 times, part a only played on second time and only by git 1,
  while git 2 plays Riff 2
- Riff 2 is played 2 times only by git 2
- Riff 2 is played 6 times by git 1 + 2, both end on an e5 powerchord

  Visit MetalTabs.com for more metal tablature

bottom separator

Contact Us | Privacy Policy | Disclaimer | Legal Notice
Copyright © 2001-2014 MetalTabs.com. All Rights Reserved.