#----------------------------------PLEASE NOTE---------------------------------#
#This file is the author's own work and represents their interpretation of the #
#song. You may only use this file for private study, scholarship, or research. #
#Unless specified otherwise, this is NOT an official tab from the band members.#
#------------------------------------------------------------------------------#

  Visit MetalTabs.com for more metal tablature
  
Author/Artist:Accept
Title: Balls To The Wall
Album: Balls To The Wall - 1983
Transcribed by: Son Of Northern Darkness (Felipe Cepollini)
Email: ben_wrangle@hotmail.com
Date: 13,14/February/2003


					            End 1x        2x
G|-------------------------------------------------|--------------|---|
D|-------------------------------------------------|--------------|---|
A|-------------------------------------------------|--------------|---|
E|-0-0-0-0-0-0-0-0-0-0-0-0-0-0-0-0-0-0-0-0-0-0-0-0-|-3----4--5--0-|-3-|

VERSE
G|------|-------------------------------------------------|
D|------|-------------------------------------------------|
A|------|-------------------------------------------------|
E|-3--0-|-0-0-0-0-0-0-0-0-0-0-0-0-0-0-0-0-0-0-0-0-0-0-0-0-|

G|-------------------------------------------------|
D|-------------------------------------------------|
A|-------------------------------------------------|
E|-0-0-0-0-0-0-0-0-0-0-0-0-0-0-0-0-0-0-0-0-0-0-0-0-|

G|------|-------------------------------------------------|
D|------|-------------------------------------------------|
A|------|-------------------------------------------------|
E|-3--0-|-0-0-0-0-0-0-0-0-0-0-0-0-0-0-0-0-0-0-0-0-0-0-0-0-|

G|-------------------------------------------------|
D|-------------------------------------------------|
A|-------------------------------------------------|
E|-0-0-0-0-0-0-0-0-0-0-0-0-0-0-0-0-0-0-0-0-0-0-0-0-|

PRE-CHORUS:
G|-------------------------------------------------|---------|
D|-------------------------------------------------|---------|
A|-2-2-2-2-2-2-2-2-2-2-2-2-2-2-2-2-2-2-2-2-2-2-2-2-|-0-0-0-0-|
E|-------------------------------------------------|---------|

CHORUS:
G|-------------------------|---------------------------------------|
D|-------------------------|---------------------------------------|
A|---2-------------2-------|---2-------------------5-5-5-5-5-5-5-5-|
E|-0---0-3-2-0-0-0---0-3-2-|-0---0-3-3-3-3-3-3-3-3-----------------|

INTERLUDE 1
G|-------------------------------------------------|
D|-------------------------------------------------|
A|-------------------------------------------------|
E|-0-0-0-0-0-0-0-0-0-0-0-0-0-0-0-0-0-0-0-0-0-0-0-0-|


  Solo begins here...
G|-------------------|
D|-------------------|
A|-------------------|
E|-0-0-0-0-0-0-0-0-0-|

SOLO:
G|-----------------------------------------------------------------|
D|-----------------------------------------------------------------|
A|-2-2-2-2-2-2-2-2-----------------2-2-2-2-2-2-2-2-0-0-0-0-0-------|
E|-----------------3-3-3-3-3-3-3-3---------------------------0-3-5-|

G|-----------------------------------------------------------------|
D|-----------------------------------------------------------------|
A|-2-2-2-2-2-2-2-2-----------------2-2-2-2-2-2-2-2-0-0-0-0-0-0-0-0-|
E|-----------------3-3-3-3-3-3-3-3---------------------------------|

G|-----------------------------------------------------------------|
D|-----------------------------------------------------------------|
A|-2-2-2-2-2-2-2-2-----------------2-2-2-2-2-2-2-2-0-0-0-0-0-------|
E|-----------------3-3-3-3-3-3-3-3---------------------------0-3-5-|

G|-----------------------------------------------------------------|
D|-----------------------------------------------------------------|
A|-2-2-2-2-2-2-2-2-----------------2-2-2-2-2-2-2-2-0-0-0-0-0-------|
E|-----------------3-3-3-3-3-3-3-3---------------------------0-3-0-|

INTERLUDE 2:
  "Balls to the wall..."
G|-------------------------|
D|-------------------------|
A|---2-------------2-------|
E|-0---0-3-2-0-0-0---0-3-2-|

PRE-CHORUS 2:
G|------------------------------------------------------------------
D|------------------------------------------------------------------
A|-2-2-2-2-2-2-2-2-2-2-2-2-2-2-2-2-2-2-2-2-2-2-2-2-0-0-0-0-0-0-0-0--
E|------------------------------------------------------------------

--------------------------------------------------------|
--------------------------------------------------------|
2-2-2-2-2-2-2-2-2-2-2-2-2-2-2-2-2-2-2-2-2-2-2-2-0-0-0-0-|
--------------------------------------------------------|

  END
G|---------|
D|---------|
A|---2-----|
E|-0---0-3-|

  Visit MetalTabs.com for more metal tablature