top separator

Home

Forum

What's New

Submit a Tab

FAQ

Links

Contact Us

Link to Us

MuSpy.com

MetalTabs.com logo

Bands

0-9

A

B

C

D

E

F

G

H

I

J

K

L

M

N

O

P

Q

R

S

T

U

V

W

X

Y

Z

Search

What

Where
 

Angel Corpse - "Embrace" Guitar Tab

Plain Text Version
More Angel Corpse Tabs

Hits: 4067
Rated: 3.67 out of 5 (3 votes)
Updated: 2003-04-09 15:37:20

 

By:

Arckanum

sendpm.gif

email.gif

Important note
We did our best to reach Angel Corpse and ask for their permission to publish this tab. Unfortunately they did not respond to our requests or we could not find a way to contact them. This tab is available online until Angel Corpse tells us to take it down.


#----------------------------------PLEASE NOTE---------------------------------#
#This file is the author's own work and represents their interpretation of the #
#song. You may only use this file for private study, scholarship, or research. #
#Unless specified otherwise, this is NOT an official tab from the band members.#
#------------------------------------------------------------------------------#

  Visit MetalTabs.com for more metal tablature
  
Band: Angel Corpse
Album: Exterminate
Song: Embrace

Transcribed By: Arckanum
Email: Arckanum@teamwarfare.com
Website: www.teamrapture.com

listen to the song to know when to tremolo pick and palm mute and such.
NOTE: there are mistakes that i couldn't get, being that some riffs
are tuff to tab by ear. If anyone finds a fix plz email it to me.
Also listen to the song to hear the Riff order cuz i'm to lazy to
write it out, shouldn't be hard tho.

tune down full step

Riff:1                  Riff:2                     1st     2nd
|----------------------|--------------------------|-------|---------|
|----------------------|--------------------------|-------|---------|
|----------------------|--------------------------|-------|---------|
|--9999-6/8--9-12-5-8--|------55-----77-----5544--|-------|---------|
|--7777-4/6--7-10-3-6--|--776633-776655-77663322--|--666--|---5-8---|
|----------------------|--5544---5544---5544------|--444--|---3-6---|

Riff:3                                            Riff:4
|------------------------------------------------|------------------|
|------------------------------------------------|------------------|
|------------------------------------------------|------------------|
|------------------------------------------------|------------------|
|--444555444333444555777--444555444333444555333--|--555/666-555/666-|
|--222333222111222333555--222333222111222333111--|--333/444-333/444-|

Cont.                                            Riff:5
|-----------------------------------------------|-------------------|
|-----------------------------------------------|-------------------|
|-----------------------------------------------|-------------------|
|----------77777--------------------------------|--666--------666999|
|--555/666-55555--555/666-555/666-555/666-9999--|--444555888--444777|
|--333/444--------333/444-333/444-333/444-7777--|-----333666--------|

Cont.
|-------------------------------------------------------------------|
|-------------------------------------------------------------------|
|-------------------------------------------------------------------|
|101010999121212--666--------666999101010999777---------------------|
|8-8-8-777101010--444555888--4447778-8-8-777555---------------------|
|--------------------333666-----------------------------------------|

Riff:6a                 Riff6b             1-3   2nd
|----------------------|-----------------------|--------------------|
|----------------------|-----------------------|--------------------|
|----------------------|-----------------------|--------------------|
|----------------------|--2-----3/6-6/9--55-3--|--2-----3/6-746352--|
|--2-----3/6-6/9-55-3--|--0-000-1/4-4/7--33-1--|--0-000-1/4-524130--|
|--0-000-1/4-4/7-33-1--|-----------------------|--------------------|

Cont. 4th                    Fill:1           Riff:7
|---------------------------|----------------|----------------------|
|---------------------------|----------------|----------------------|
|---------------------------|----------------|--767-10-767----------|
|--2-----3/6----------------|--666----5-4-3--|--545-8--545-7--------|
|--0-000-1/4-1079685--55-3--|--4447/6-3-2-1--|-------------5--------|
|------------8-57463--33-1--|-----5/4--------|----------------------|

Riff:8            1st      2nd      Riff:9
|----------------|--------|--------|--------------------------------|
|----------------|--------|--------|--------------------------------|
|----------------|--------|--------|--------------------------------|
|--666-999888666-|--------|-121212-|-----------555------------------|
|--444-777666444-|-771010-|-111111-|--777666777333------------------|
|----------------|-558-8--|--------|--555444555---------------------|

  Visit MetalTabs.com for more metal tablature

bottom separator

Contact Us | Privacy Policy | Disclaimer | Legal Notice
Copyright © 2001-2014 MetalTabs.com. All Rights Reserved.