top separator

Home

Forum

What's New

Submit a Tab

FAQ

Links

Contact Us

Link to Us

MetalTabs.com logo

Bands

0-9

A

B

C

D

E

F

G

H

I

J

K

L

M

N

O

P

Q

R

S

T

U

V

W

X

Y

Z

Search

What

Where
 

Angel Corpse - "Sons of Vengeance" Guitar Tab

Plain Text Version
More Angel Corpse Tabs

Hits: 5192
Rated: 5.00 out of 5 (1 vote)
Updated: 2003-04-09 15:36:17

 

By:

Arckanum

sendpm.gif

email.gif

Important note
We did our best to reach Angel Corpse and ask for their permission to publish this tab. Unfortunately they did not respond to our requests or we could not find a way to contact them. This tab is available online until Angel Corpse tells us to take it down.


#----------------------------------PLEASE NOTE---------------------------------#
#This file is the author's own work and represents their interpretation of the #
#song. You may only use this file for private study, scholarship, or research. #
#Unless specified otherwise, this is NOT an official tab from the band members.#
#------------------------------------------------------------------------------#

  Visit MetalTabs.com for more metal tablature
  
Band: Angel Corpse
Album: Exterminate
Song: Sons of vengeance

Transcribed By: Arckanum
Email: Arckanum@teamwarfare.com
Website: www.teamrapture.com

listen to the song to know when to tremolo pick and palm mute and such.
NOTE: there are mistakes that i couldn't get, being that some riffs
are tuff to tab by ear. If anyone finds a fix plz email it to me.
Also listen to the song to hear the Riff order cuz i'm to lazy to
write it out, shouldn't be hard tho.

tune down full step

Riff:1				    1-3               4th
|----------------------------------|-----------------|--------------|
|----------------------------------|-----------------|--------------|
|----------------------------------|-----------------|--------------|
|----------------------------------|-----------------|--------------|
|--2------8\---------8\--------8\--|---h-h---5--3-4--|---h-h-h---3--|
|--0-000--6\--0-000--6\--0-000-6\--|--0-1-2--3--1-2--|--0-1-2-3--1--|

Riff:2				       1&3    2nd     4th
|-------------------------------------|------|-------|--------------|
|-------------------------------------|------|-------|--------------|
|-------------------------------------|------|-------|--------------|
|--------9/10-9-------------12/13-12--|---33-|---5-3-|-------9/10-9-|
|--2-----7/8--7-------2-----10/11-10--|---11-|---3-1-|-2-----7/8--7-|
|--0-000--------0-000-0-000-----------|-0----|-0-----|-0-000--------|

Cont.         Riff:3
|------------|------------------------------------------------------|
|------------|------------------------------------------------------|
|------------|------------------------------------------------------|
|------------|--------------------------------333222--------222-----|
|----5--6-3--|-----------222111-444111---------------333444---------|
|--0-3--4-1--|---333-111--------------333-111-----------------------|

Riff:4		   1st   2nd Riff:5
|-----------------|-----|---|---------------------------------------|
|-----------------|-----|---|---------------------------------------|
|-----------------|-----|---|---------------------------------------|
|--9------6-5-----|-4-5-|---|---------------------------------------|
|--7------4-3-7-6-|-2-3-|-3-|------4-3-/6---/6--------4-3-----------|
|-----0-0-----5-4-|-----|-1-|--6-5-----/4-0-/4-0--6-5-----0-1-3-4---|

Riff:6a    1&3              2nd                 4th
|---------|----------------|-------------------|--------------------|
|---------|----------------|-------------------|--------------------|
|---------|----------------|-------------------|--------------------|
|---------|--999101010888--|--999121212111111--|--------------------|
|--2------|--7778-8-8-666--|--7771010109-9-9---|--2---------2-6-5---|
|--00000--|----------------|-------------------|--0-000000--0-4-3---|

Riff:6b    1&3              2nd                 4th
|---------|----------------|-------------------|--------------------|
|---------|----------------|-------------------|--------------------|
|---------|----------------|-------------------|--------------------|
|---------|--999101010888--|--999121212111111--|--------------------|
|--2------|--7778-8-8-666--|--7771010109-9-9---|--2-------6-6--3----|
|--00000--|----------------|-------------------|--0-0000--4-4--1----|

Riff:7
|-------------------------------------------------------------------|
|-------------------------------------------------------------------|
|-------------------------------------------------------------------|Gtr1
|--------333666222---------333666222---------333666222---------33366|
|-333222------------333222------------333222------------333222------|
|-------------------------------------------------------------------|
|
|-------------------------------------------------------------------|
|-------------------------------------------------------------------|
|-------------------------------------------------------------------|
|--------333666222--------------------333222-------555--------------|Gtr2
|-333222------------333222-333666222---------333666-----333222-33366|
|-------------------------------------------------------------------|

Cont.
|-------------------------------------------------------------------|
|-------------------------------------------------------------------|
|-------------------------------------------------------------------|
|6222---------333666222---------------------------------------------|Gtr1
|------333222------------333222--3-6--2-----------------------------|
|--------------------------------1-4--0-----------------------------|
|
|-------------------------------------------------------------------|
|-------------------------------------------------------------------|
|-------------------------------------------------------------------|
|------333222-------555---------------------------------------------|Gtr2
|6222---------333666-----333222--3-6--2-----------------------------|
|--------------------------------1-4--0-----------------------------|

Fill:1
|-------------------------------------------------------------------|
|-------------------------------------------------------------------|
|-------------------------------------------------------------------|
|-------------------------------------------------------------------|
|--2-3-5-6--2-3-5-6-------------------------------------------------|
|--0-1-3-4--0-1-3-4-------------------------------------------------|

  Visit MetalTabs.com for more metal tablature

bottom separator

Contact Us | Privacy Policy | Disclaimer | Legal Notice
Copyright © 2001-2014 MetalTabs.com. All Rights Reserved.