top separator

Home

Forum

What's New

Submit a Tab

FAQ

Links

Contact Us

Link to Us

MuSpy.com

MetalTabs.com logo

Bands

0-9

A

B

C

D

E

F

G

H

I

J

K

L

M

N

O

P

Q

R

S

T

U

V

W

X

Y

Z

Search

What

Where
 

God Forbid - "Madman" Guitar Tab

Plain Text Version
More God Forbid Tabs

Hits: 7567
Rated: 4.00 out of 5 (1 vote)
Updated: 2003-04-09 15:27:07

 

Important note
This tab is available online because we obtained explicit permission from God Forbid or their label.


#----------------------------------PLEASE NOTE---------------------------------#
#This file is the author's own work and represents their interpretation of the #
#song. You may only use this file for private study, scholarship, or research. #
#Unless specified otherwise, this is NOT an official tab from the band members.#
#------------------------------------------------------------------------------#

  Visit MetalTabs.com for more metal tablature
  
Band:  GOD FORBID
Album: Out of Misery
Song:  Madman

Copyright (c)2001 God Forbid
Version 1.0 -February 13, 2003

Transcribed By: shatteredexistence
Email:          shatteredexistence@comcast.net


.  - palm mute
\  - slide down to
/  - slide up to
p  - pull off
t  - tap
*  - see comment


Tunning C G C F A D

Intro
|-9--------9--------9--------9-------9--------9------9----9--9---------|
|---13-------13-------13------13-------13------13------13-----13-------|
|------11-------11-------11------11-------11-----11--------------11----|
|----------------------------------------------------------------------|
|----------------------------------------------------------------------|
|----------------------------------------------------------------------|

Riff 1a- 3x
|-----------------------------|
|-----------------------------|
|-----------------------------|
|----4--3---------------------|
|------------4----4--5-4-0----|
|-4--------4----4----------5--|

Bridge 1- 1x
|--------------------------------|
|--------------------------------|
|--------------------------p-----|
|--------------------------------|
|-4-4-4-4-4-4-4-4-4-4-4-4-4-0----|
|-4-4-4-4-4-4-4-4-4-4-4-4-----5--|
  . . . . . . . . . . . .
Riff 1a- 1x

Riff 1b- 3x
|------------------------------|
|------------------------------|
|------------------------------|
|-----4--3---------------------|
|-4-4---------4----4--5-4-0----|
|-4-4-------4----4----------5--|
  . .       .    .

Riff 1c- 1x
|-------------------------|
|-------------------------|
|-------------------------|
|-----4--3----------------|
|-4-4---------4--5-4-0----|
|-4-4-------4----------5--|
  . .       .

Riff 1d- 3x
|--------------------------|
|--------------------------|
|--------------------------|
|------4--3----------------|
|--------------4--5-4-0----|
|-7545------ 4----------5--|
  ....       .

Bridge 2- 1x
|-------------------------|
|-------------------------|
|-------------------------|
|-----4----3--------------|
|-444----------------4-4--|
|-444-----------5----4-4--|
  ...                . .

Riff 2- 8x
            p
         p
|-----------87-|
|--------76----|
|--6--5--------|
|-0-00-00--0---|
|--------------|
|--------------|
  . .. ..  .

Riff 3-8x     *     *-Natural harmonic pick between 5th and 6th frets
|---------------*--|
|-------------5----|
|---------------5--|
|------------------|
|------------------|
|-444-333-222------|
  ... ... ...

                                                        *
Bridge 3- 1x                                            t  p t  p t  p t  p    *this is 14 10 7- 4x
|----------------------------------------------------------------------------|
|-------------------------------------------------------14107141071410714107-|
|----------------------------------------------------------------------------|
|----------------------------------------------------------------------------|
|----------------------------------------------------------------------------|
|-44444444-4/----44444444-4/----44444444-4/----44444444----------------------|
  ........       ........       ........       ........

Riff 3- 8x

Bridge 4- 1x
|--------------|
|--------------|
|--------------|
|--------------|
|--------------|
|-44444444\----|
  ........

Riff 1a- 1x

Riff 1b- 3x

Bridge 5- 2x
|-----------------|
|-----------------|
|-----------------|
|-4---------------|
|-----5---4---5---|
|-----------------|

Riff 4- gtr. 1 and 2: 2x

	gtr. 1
	|-----------------------------------------------------------------|
	|-----------------------------------------------------------------|
	|-----------------------------------------------------------------|
	|-4---------------5---------------6---------------5---------------|
	|-----------------------------------------------------------------|
	|-----------------------------------------------------------------|

	gtr. 2
	|-----------------------------------------------------------------|
	|-----0-2-0-----------0-2-0-----------0-2-0-----------0-2-5-------|
	|---2-------2---2---2-------2---2---2-------2---2---2-------2---2-|
	|-4-----------4---4-----------4---4-----------4---4-----------4---|
	|-----------------------------------------------------------------|
	|-----------------------------------------------------------------|

Riff 5a- 2x
|-----------------------------------------|
|-----------------------------------------|
|-----------------------------------------|
|-------4---------------------------------|
|-----------------5---0-0-0-4---------5---|
|-4-4-4-----5-5-5---------------5-5-5-----|
  . . .     . . .     . . .     . . .

Riff 5b- 2x
|-----------------------------------------------------------------|
|-----------------------------------------------------------------|
|-----------------------------------------------------------------|
|---------444-333-------------------------------------------------|
|-------------------------555-444-000-000-----------------555-444-|
|-444-444---------555-555-----------------777-555-555-555---------|
  ... ...         ... ...         ... ... ... ... ... ... ... ...

Bridge 6- 1x
|--------|
|--------|
|--------|
|--------|
|--------|
|-444444-|
  ......

Riff 6a- 4x
|-----------------------------------------|
|-----------------------------------------|
|-----------------------------------------|
|-----------------------------------------|
|-----------8-----4-5-----------8---------|
|-44444-5-4-8-5-5-4-5-44444-5-4-8-5-5-3---|
  ..... . .   . .     ..... . .   . .

Fill 1- 1x
|-----------------------------------------|
|-----------------------------------------|
|-----------------------------------------|
|-----------------------------------------|
|-----------------------------------------|
|-444444--------------444444--------------|
  ......              ......

Riff 6a- 2x

Riff 7- 1x
|-----------------------------8---|
|---------------------7-------7---|
|-------------5-------5-------5---|
|-----4-------4-------4-----------|
|-----4-------3-------------------|
|-44444---4444----4444----4444----|
  ....    ....    ....    ....

Riff 8- 2x
|-----8-8-------7-7--|
|---7---7-----6---6--|
|-5-----5---4-----4--|
|--------------------|
|--------------------|
|--------------------|


Riff 9- gtr. 1 and 2: 2x

	gtr. 1
	|-----------------------------------------------------------------|
	|-----------------------------------------------------------------|
	|-----------------------------------------------------------------|
	|-----------------------------------------------------------------|
	|-4-4-4-4-4-4-4-4-4-4-4-4-4-4-4-4-3-3-3-3-3-3-3-3-3-3-3-3-3-3-3-3-|
	|-4-4-4-4-4-4-4-4-4-4-4-4-4-4-4-4-3-3-3-3-3-3-3-3-3-3-3-3-3-3-3-3-|
	  . . . . . . . . . . . . . . . . . . . . . . . . . . . . . . . .

	|-----------------------------------------------------------------|
	|-----------------------------------------------------------------|
	|-----------------------------------------------------------------|
	|-----------------------------------------------------------------|
	|-4-4-4-4-4-4-4-4-4-4-4-4-4-4-4-4-3-3-3-3-3-3-3-3-----------------|
	|-4-4-4-4-4-4-4-4-4-4-4-4-4-4-4-4-3-3-3-3-3-3-3-3-/---------------|
	  . . . . . . . . . . . . . . . . . . . . . . . .

	gtr.2
	|-9----------9----------9----------9----------8----------8----------8----------8----------|
	|------13------13----13------13------13----13------12------12----12------12------12----12-|
	|---11----11------11------11----11------11------10----10------10------10----10------10----|
	|-----------------------------------------------------------------------------------------|
	|-----------------------------------------------------------------------------------------|
	|-----------------------------------------------------------------------------------------|
	  . .  .  .             . .  .  .             . .  .  .             . .  .  .

	|-9----------9----------9----------9----------8----------8----------8--8--8--8--8--8--8--8--|
	|------13------13----13------13------13----13------12------12----12-12-12-12-12-12-12-12-12-|
	|---11----11------11------11----11------11------10----10------10----10-10-10-10-10-10-10-10-|
	|-------------------------------------------------------------------------------------------|
	|-------------------------------------------------------------------------------------------|
	|-------------------------------------------------------------------------------------------|
	  . .  .  .             . .  .  .             . .  .  .

 Bridge 7- 1x
|---------------------------------------|
|---------------------------------------|
|---------------------------------------|
|---------------------------------------|
|---------------------------------------|
|-444444---444444---444444---444444-/---|
  ......   ......   ......   ......

Riff 6b- 4x
|-----------------------------------------|
|-----------------------------------------|
|-----------------------------------------|
|-----------------------------------------|
|-----------8-----4-5-----------8-----4-5-|
|-44444-5-4-8-5-5-4-5-33334-5-4-8-5-5-4-5-|
  ..... . .   . .     ..... . .   . .

Outro- 4x
|----------|
|----------|
|----------|
|----------|
|----------|
|-444444---|
  ......

  Visit MetalTabs.com for more metal tablature

bottom separator

Contact Us | Privacy Policy | Disclaimer | Legal Notice
Copyright © 2001-2014 MetalTabs.com. All Rights Reserved.