top separator

Home

Forum

What's New

Submit a Tab

FAQ

Links

Contact Us

Link to Us

MetalTabs.com logo

Bands

0-9

A

B

C

D

E

F

G

H

I

J

K

L

M

N

O

P

Q

R

S

T

U

V

W

X

Y

Z

Search

What

Where
 

God Dethroned - "The Iconoclast Deathride" Guitar Tab

Plain Text Version
More God Dethroned Tabs

Hits: 4312
Rated: 3.25 out of 5 (4 votes)
Updated: 2003-04-09 14:59:55

 

Important note
This tab is available online because we obtained explicit permission from God Dethroned or their label.


#----------------------------------PLEASE NOTE---------------------------------#
#This file is the author's own work and represents their interpretation of the #
#song. You may only use this file for private study, scholarship, or research. #
#Unless specified otherwise, this is NOT an official tab from the band members.#
#------------------------------------------------------------------------------#

  Visit MetalTabs.com for more metal tablature
  
Band:  God Dethroned
Album: Ravenous
Song:  The Iconoclast Deathride

Copyright (c)  Metalblade 2000
Version 1.0 - 09-02-2003

Transcribed By: Paul Berndsen
Email:          pjnberndsen@planet.nl


.  - palm mute           /  - slide up to
\  - slide down to       ~  - vibrato
h  - hammer on           b  - Bend
p  - pull off            Suffixes for bend
t  - tap                 f  - full bend    h - half bend
ph - pinched harmonic    q  - quarter bend t - tap bend
*  - see comment         ^  - Hold bend    r release bend
x  - Stuccatto           ~  - vibrato bend
,  - slight palm mute    () - ghost note, sustained note
"  - tremolo note        <> - Trill

Tunning D G C F A D
Note!!!!!! The Ravenous album is in C#, so if you have a D tuned guitar instead of a
C# tuned guitar, play this notes, otherwise,

D		C#
-8-             -9-
-8-   becomes   -9-
-6-             -7-
                                                                                     4x
D||--------------------|-------------------|-------------------|---------------------||
A||--------------------|-------------------|-------------------|---------------------||
F||*-------------------|-------------------|-------------------|--------------------*||
C||*--8----------------|--6----------------|--4----------------|--6--------3--------*||
G||---8----------------|--6----------------|--4----------------|--6--------3---------||
D||---6----------------|--4----------------|--2----------------|--4--------1---------||



||----------------------|------------------|---------------------|-------------------||
||----------------------|------------------|---------------------|-------------------||
||*---------------------|------------------|---------------------|------------------*||
||*--8--------8------6--|------------------|--8--------6------4--|------------------*||
||---8--------6------6--|------------------|--8--------4------4--|-------------------||
||---6---------------4--|------------------|--6---------------2--|-------------------||



                                                                                        4x
||--------------------|----------------------|--------------------|---------------------||
||--------------------|----------------------|--------------------|---------------------||
||*-------------------|----------------------|--------------------|--------------------*||
||*--8----------------|----------------------|--8------------6----|--4--------3--------*||
||---8----------------|----------4/-6--4/-6--|--8------------4----|--4--------3---------||
||---6----------------|----------2/-4--2/-4--|--6-----------------|--2--------1---------||



||----------------------|------------------|---------------------|-------------------||
||----------------------|------------------|---------------------|-------------------||
||*---------------------|------------------|---------------------|------------------*||
||*--8--------8------6--|------------------|--8--------6------4--|------------------*||
||---8--------6------6--|------------------|--8--------4------4--|-------------------||
||---6---------------4--|------------------|--6---------------2--|-------------------||



||--------------------|----------------------|--------------------|---------------------||
||--------------------|----------------------|--------------------|---------------------||
||*-------------------|----------------------|--------------------|--------------------*||
||*--8----------------|----------------------|--8------------6----|--4--------3--------*||
||---8----------------|----------4/-6--4/-6--|--8------------4----|--4--------3---------||
||---6----------------|----------2/-4--2/-4--|--6-----------------|--2--------1---------||


                                          3x
||----------------------|------------------|---------------------|-------------------||
||----------------------|------------------|---------------------|-------------------||
||*---------------------|------------------|---------------------|------------------*||
||*--8--------8------6--|------------------|--8--------6------4--|------------------*||
||---8--------6------6--|------------------|--8--------4------4--|-------------------||
||---6---------------4--|------------------|--6---------------2--|-------------------||


-----------------------------------|----------------------------------|
-----------------------------------|----------------------------------|
*----------------------------------|----------------------------------|
*------------------8-8-8-8-8-8-9-9-|--9-9-9-9-9-9-9-9-9-9-8-8-6-6-8-8-|
---6-6-6-6-6-6-6-6-----------------|----------------------------------|
-----------------------------------|----------------------------------|

                                                                      3x
----------------------------------|-----------------------------------||
----------------------------------|-----------------------------------||
------------------------------6-6-|--6-6-6-6-6-6-6-6-----------------*||
------------------8-8-8-8-8-8-----|------------------9-9-8-8-6-6-8-8-*||
--6-6-6-6-6-6-6-6-----------------|-----------------------------------||
----------------------------------|-----------------------------------||


-----------------------------------|----------------------------------|
-----------------------------------|----------------------------------|
*----------------------------------|----------------------------------|
*----------------------------------|----------------------------------|
---6-6-6-6-6-6-6-6-6-6-6-6-6-6-6-6-|--8-8-8-8-8-8-8-8-8-8-8-8-6-6-6-6-|
-----------------------------------|----------------------------------|


----------------------------------|-----------------------------------||
----------------------------------|-----------------------------------||
----------------------------------|----------------------------------*||
----------------------------------|----------------------------------*||
----------------------------------|-----------------------------------||
--9-9-9-9-9-9-9-9-9-9-9-9-9-9-9-9-|--6-6-6-6-6-6-6-6-9-9-8-8-6-6-4-4--||

These are all the riffs, and almost in the right order.
Have fun!

  Visit MetalTabs.com for more metal tablature

bottom separator

Contact Us | Privacy Policy | Disclaimer | Legal Notice
Copyright © 2001-2014 MetalTabs.com. All Rights Reserved.