top separator

Home

Forum

What's New

Submit a Tab

FAQ

Links

Contact Us

Link to Us

MetalTabs.com logo

Bands

0-9

A

B

C

D

E

F

G

H

I

J

K

L

M

N

O

P

Q

R

S

T

U

V

W

X

Y

Z

Search

What

Where
 

Samael - "With the gleam of torches" Guitar Tab

Plain Text Version
More Samael Tabs

Hits: 6988
Rated: 3.75 out of 5 (8 votes)
Updated: 2003-04-09 14:56:59

 

By:

INVERTED

sendpm.gif

email.gif

Important note
This tab is available online because we obtained explicit permission from Samael or their label.


#----------------------------------PLEASE NOTE---------------------------------#
#This file is the author's own work and represents their interpretation of the #
#song. You may only use this file for private study, scholarship, or research. #
#Unless specified otherwise, this is NOT an official tab from the band members.#
#------------------------------------------------------------------------------#

  Visit MetalTabs.com for more metal tablature
  
                         SAMAEL - WITH THE GLEAM OF THE TORCHES
                             From the Album - BLOOD RITUAL
                             Copyright - CENTURY MEDIA 1992
                               Version 1.0 - Febuary, 2003


Transcribed By: James Williams (Inverted)

For Questions, Comments, Newest Version, or Corrections contact
Inverted: at Inverted_one@hotmail.com

Check Out Death8699.com, With More Transcriptions On It:
http://www.death8699.com

.  - palm mute           /  - slide up to
\  - slide down to       ~  - vibrato
h  - hammer on           b  - Bend
p  - pull off            Suffixes for bend
t  - tap                 f  - full bend    h - half bend
ph - pinched harmonic    q  - quarter bend t - tap bend
*  - see comment         ^  - Hold bend    r release bend
x  - rest                ~  - vibrato bend
,  - slight palm mute    () - ghost note, sustained note
"  - tremolo note        <> - Trill

Tuning: "C#"F#"B"E"G#"C#"


Riff 1-A                     x2
|------------------------------|
|------------------------------|
|------------------------5--7--|
|--0-0-0-0-5--0-0-8--0-0-------|
|------------------------------|
|------------------------------|


Riff 1-B                     x2
|------------------------------|
|------------------------------|
|------------------------------|
|--0-0-0-0-5--0-0-7--0-0-3--2--|
|------------------------------|
|------------------------------|


Riff 1-C                     x2
|------------------------------|
|------------------------------|
|------------------------------|
|------------------------------|
|--0-0-0-0-5--0-0-7--0-0-3--2--|
|------------------------------|


Riff 1-D                     x2
|------------------------------|
|------------------------------|
|------------------------------|
|------------------------------|
|----------7------9------5--4--|
|--0-0-0-0-5--0-0-7--0-0-3--2--|
   . . . .    . .    . .

Riff 1-E                     x2
|------------------------------|
|------------------------------|
|------------------------7--9--|
|----------9-----10------5--7--|
|--0-0-0-0-7--0-0-8--0-0-------|
|------------------------------|
   . . . .    . .    . .

Riff 2-A
|-------------------------------------------|
|-------------------------------------------|
|-------------------------------------------|
|-------------------------------------------|
|-------------------------9---9-10----------|
|--0--0-0-0-0--0--0-0-0-0-7---7--8----------|
   .  . . . .  .  . . . .

Riff 2-B
|-------------------------------------------|
|-------------------------------------------|
|-------------------------------------------|
|-------------------------7------9----(9)/--|
|-------------------------5------7----(7)/--|
|--0--0-0-0----0--0-0-0---------------------|
   .  . . .    .  . . .

Riff 2-C
|-------------------------------------------|
|-------------------------------------------|
|-------------------------------------------|
|-------------------------9-----------(9)/--|
|-------------------------7-----------(7)/--|
|--0--0-0-0----0--0-0-0---------------------|
   .  . . .    .  . . .

Riff 2-D
|-------------------------------------------|
|-------------------------------------------|
|-------------------------------------------|
|-------------------------7-----------(7)/--|
|-------------------------5-----------(5)/--|
|--0--0-0-0-0--0--0-0-0-0-------------------|
   .  . . . .  .  . . . .

Riff 2-E
|-------------------------------------------|
|-------------------------------------------|
|-------------------------------------------|
|-------------------------9-----------------|
|-------------------------7------10---------|
|--0--0-0-0----0--0-0-0-----------8---------|
   .  . . .    .  . . .

Riff 2-F
|-------------------------------------------|
|-------------------------------------------|
|-------------------------------------------|
|-------------------------7-----------------|
|-------------------------5-------9---------|
|--0--0-0-0-0--0--0-0-0-0---------7---------|
   .  . . . .  .  . . . .

Riff 2-G
|--------------------------------------------------|
|--------------------------------------------------|
|--------------------------------------------------|
|-------------------------7------9-------10--------|
|-------------------------5------7--------8--------|
|--0--0-0-0----0--0-0-0----------------------------|
   .  . . .    .  . . .

Riff 3-A
|------------------------------------------------------------------------|
|------------------------------------------------------------------------|
|------------------------------------------------------------------------|
|--------------4h5p4-------------2h3p2-----------------------------------|
|--777777777777------555555555555------33333333333333332222222222222222--|
|------------------------------------------------------------------------|


Fill 1
|----------------------------------------------|
|----------------------------------------------|
|----------------------------------------------|
|--2h3p2-5--4h5p4-7------9---------------------|
|--------3--------5------7---------------------|
|-----------------------------------------0-0--|
                                          . .

Riff 4-A
|------------------------------------------------------------------|
|------------------------------------------------------------------|
|------------------------------------------------------------------|
|--9-----9-----9---7-----7-----7---9-----9-----9-9--10------5------|
|--7-----7-----7---5-----5-----5---7-----7-----7-7---8------3------|
|----0-0---0-0---0---0-0---0-0---0---0-0---0-0---------------------|
     . .   . .   .   . .   . .   .   . .   . .

Riff 4-B
|-----------------------------------|
|-----------------------------------|
|-----------------------------------|
|--9-----9-----9---9-----9-----9----|
|--7-----7-----7---7-----7-----7----|
|----0-0---0-0---0---0-0---0-0---0--|
     . .   . .   .   . .   . .   .

Riff 4-C
|-----------------------------------|
|-----------------------------------|
|-----------------------------------|
|--7-----7-----7---7-----7-----7----|
|--5-----5-----5---5-----5-----5----|
|----0-0---0-0---0---0-0---0-0---0--|
     . .   . .   .   . .   . .   .

Riff 4-D
|-------------------------------------|
|-------------------------------------|
|-------------------------------------|
|--9-----9-----9-9--9--10------5------|
|--7-----7-----7-7--7---8------3------|
|----0-0---0-0------------------------|
     . .   . .

Riff 4-E
|-------------------------------|
|-------------------------------|
|-------------------------------|
|--7------7------10------5------|
|--5------5-------8------3------|
|-----0-0----0-0----------------|
      . .    . .

Fill 2
|-----------------------|
|-----------------------|
|-----------------------|
|--9-------10-----------|
|--7--------8-----------|
|-----------------------|


Riff 3-B
|------------------------------------------------------------------------|
|------------------------------------------------------------------------|
|------------------------------------------------------------------------|
|--------------4h5p4-------------2h3p2--------------------------3---0----|
|--777777777777------555555555555------333333333333333322222222-3---0----|
|------------------------------------------------------------------------|
   ............      ............      ........................

Riff 5-A
|----------------------------|-----------------------------|
|----------------------------|-----------------------------|
|----------------------------|-----------------------------|
|--9-------------------------|--4------------------2h3p2---|
|--7-------------------------|--2--------------------------|
|----------------------------|-----------------------------|
|                                                          |
|                                                          |
|----------------------------|-----------------------------|
|----------------------------|-----------------------------|
|----------------------------|-----------------------------|
|--5-------------------------|--7--------------------------|
|--3-------------------------|--5--------------------------|
|----------------------------|-----------------------------|


Riff 5-B
|----------------------------|-----------------------------|
|----------------------------|-----------------------------|
|----------------------------|-----------------------------|
|--9--9--9-9-9--9--9--9-9-9--|--4--4--4-4-4--4--4--2h3p2---|
|--7--7--7-7-7--7--7--7-7-7--|--2--2--2-2-2--2--2----------|
|----------------------------|-----------------------------|
|                                                          |
|                                                          |
|----------------------------|-----------------------------|
|----------------------------|-----------------------------|
|----------------------------|-----------------------------|
|--5--5--5-5-5--5--5--5-5-5--|--7--7--7-7-7--7--7--7-7-7---|
|--3--3--3-3-3--3--3--3-3-3--|--5--5--5-5-5--5--5--5-5-5---|
|----------------------------|-----------------------------|


Fill 3
|-------------------------------------------------------|
|-------------------------------------------------------|
|-------------------------------------------------------|
|--9--9--9-9-9--4--4--4-4-4--5--5--5-5-5----------------|
|--7--7--7-7-7--2--2--2-2-2--3--3--3-3-3--8~------------|
|------------------------------------------------7~-----|


Riff 6
|------------------------------------------------|
|------------------------------------------------|
|------------------------------------------------|
|--9------9------9------9-9-9--------------------|
|--7------7------7------7-7-7--9-------10--------|
|----0000---0000---0000--------7--------8--------|
     ....   ....   ....

Riff 7-A           x2                   x1                   x1
|--------------------|--------------------|--------------------|
|--------------------|--------------------|--------------------|
|--------------------|--------------------|--------------------|
|--------------------|--------------------|--------------------|
|--7-----7-10--9-10--|--9-----------------|--8~----------------|
|--5-----5--8--7--8--|--7-----------------|-----------7~-------|
   .     .

Riff 7-B           x3                   x1                   x1
|--------------------|--------------------|--------------------|
|--------------------|--------------------|--------------------|
|--------------------|--------------------|--------------------|
|--------------------|--------------------|-10-10-10-10-10-10--|
|--7-----7-10--9-10--|--9--9--9--9--9--9--|--7--7--7--7--7--7--|
|--5-----5--8--7--8--|--6--6--6--6--6--6--|--------------------|
   .     .              .  .  .  .  .  .     .  .  .  .  .  .

Riff 7-B           x3                   x1                   x1
|--------------------|--------------------|--------------------|
|--------------------|--------------------|--------------------|
|--------------------|--------------------|--------------------|
|--------------------|--------------------|-10-10-10-10-10-10--|
|--7--7--7-10--9-10--|--9--9--9--9--9--9--|--7--7--7--7--7--7--|
|--5--5--5--8--7--8--|--6--6--6--6--6--6--|--------------------|
   .  .  .              .  .  .  .  .  .     .  .  .  .  .  .

Fill 4
|------|
|------|
|------|
|------|
|--7x--|
|--5x--|


Riff 8-A
|---------------------------------------------------------------------------|
|---------------------------------------------------------------------------|
|---------------------------------------------------------------------------|
|--------------2h3p2-------------4h5p4-------------5h6p5-------------7h8p7--|
|--000000000000------222222222222------333333333333------555555555555-------|
|---------------------------------------------------------------------------|


Riff 8-B
|---------------------------------------------------------------------------|
|---------------------------------------------------------------------------|
|---------------------------------------------------------------------------|
|--------------2h3p2-------------4h5p4-------------5h6p5-------------7h8p7--|
|--777777777777------222222222222------333333333333------555555555555-------|
|---------------------------------------------------------------------------|


Riff 9-A
|-----------------------------------------------------|
|-----------------------------------------------------|
|-----------------------------------------------------|
|--------------2h3p2-4--4h5p4-5--5h6p5-7--7h8p7-9-99--|
|--777777777777------2--------3--------5--------7-77--|
|-----------------------------------------------------|


Riff 9-B
|-----------------------------------------|
|-----------------------------------------|
|-----------------------------------------|
|--2h3p2-4--4h5p4-5--5h6p5-7--7h8p7-9-99--|
|--------2--------3--------5--------7-77--|
|-----------------------------------------|


Riff 10-A
|---------------------------------------|
|---------------------------------------|
|--------------------------------2h3p2--|
|--------------2h3p2--------------------|
|--222222222222------333333333333-------|
|---------------------------------------|
   ............      ............

Riff 10-B
|----------------------------------|
|----------------------------------|
|----------------------------------|
|--------------2h3p2-5-------------|
|--222222222222------3------5------|
|---------------------------3------|
   ............

Riff 11-A
|-------------------------------------------------------|
|-------------------------------------------------------|
|-------------------------------------------------------|
|--------------4------5------------------------3--------|
|--2-----------2------3------2--------------3-----3-----|
|--0-------------------------0-----------1--------------|
|                                                       |
|                                                       |
|-------------------------------------------------------|
|-------------------------------------------------------|
|-------------------------------------------------------|
|--------------4------5------------------8------7----5--|
|--2-----------2------3------2-----------6------5----3--|
|--0-------------------------0--------------------------|


Riff 11-B
|--------------------------------------------------------------------|
|--------------------------------------------------------------------|
|--------------------------------------------------------------------|
|--------------------------------------------------------------------|
|------------------2222222233333333----------------------------------|
|--0000000000000000----------------00000000000000001111111111111111--|
|  ................................................................  |
|                                                                    |
|--------------------------------------------------------------------|
|--------------------------------------------------------------------|
|--------------------------------------------------------------------|
|---------------------------------------------------8------7----5----|
|------------------2222222233333333-----------------6------5----3----|
|--0000000000000000----------------0000000000000000------------------|
   ................................................

Riff 11-C
|-------------------------------------------------------|
|-------------------------------------------------------|
|-------------------------------------------------------|
|--------------4------5------------------------3--------|
|--2----(2)x---2------3------2----(2)x------3-----3-----|
|--0----(0)x-----------------0----(0)x---1--------------|
|                                                       |
|                                                       |
|-------------------------------------------------------|
|-------------------------------------------------------|
|-------------------------------------------------------|
|--------------4------5------------------8------7----5--|
|--2----(2)x---2------3------2-----------6------5----3--|
|--0----(0)x-----------------0--------------------------|


Riff 11-D
|-------------------------------------------------------|
|-------------------------------------------------------|
|-------------------------------------------------------|
|--------------4------5------------------------3--------|
|--2-----------2------3------2--------------3-----3-----|
|--0--0-0-0-0----------------0----0---0--1--------------|
|     . . . .                     .   .                 |
|                                                       |
|-------------------------------------------------------|
|-------------------------------------------------------|
|-------------------------------------------------------|
|--------------4------5------------------8------7----5--|
|--2-----------2------3------2-----------6------5----3--|
|--0--0---0-0----------------0--------------------------|
      .   . .

End
|------|
|------|
|------|
|------|
|--2x--|
|--0x--|


Check out my other tabs by: Deicide, Obituary, Hypocrisy,
Grave, Catastrophic, Six Feet Under, Incantation, Death,
Cannibal Corpse, Broken Hope, Cancer, Dark Tranquillity,
Malevolent Creation, Lowbrow, Unleashed and Samael.

  Visit MetalTabs.com for more metal tablature

bottom separator

Contact Us | Privacy Policy | Disclaimer | Legal Notice
Copyright © 2001-2014 MetalTabs.com. All Rights Reserved.