top separator

Home

Forum

What's New

Submit a Tab

FAQ

Links

Contact Us

Link to Us

MuSpy.com

MetalTabs.com logo

Bands

0-9

A

B

C

D

E

F

G

H

I

J

K

L

M

N

O

P

Q

R

S

T

U

V

W

X

Y

Z

Search

What

Where
 

Destruction - "Tormentor" Guitar Tab

Plain Text Version
More Destruction Tabs

Hits: 7028
Rated: 3.33 out of 5 (3 votes)
Updated: 2003-04-09 14:45:22

 

By:

Kramer

sendpm.gif

email.gif

Important note
This tab is available online because we obtained explicit permission from Destruction or their label.


#----------------------------------PLEASE NOTE---------------------------------#
#This file is the author's own work and represents their interpretation of the #
#song. You may only use this file for private study, scholarship, or research. #
#Unless specified otherwise, this is NOT an official tab from the band members.#
#------------------------------------------------------------------------------#

  Visit MetalTabs.com for more metal tablature
  
Destruction "Tormentor" from INFERNAL OVERKILL (1985)

Tabbed by Kramer

Riff 1 twice
D-----------3-3-----5-5--------------3-3-----6-6----
A-2-2-------1-1--0--3-3----2-2-------1-1--0--4-4----
E-0-0----------------------0-0----------------------

Riff 2 12x
D--------------3-3--------5-5--------6-6----
A--------------1-1--------3-3--------4-4----
E-0-0-0000-0--------0000-------0000---------

Riff 3 twice
D-Oh3p0h2p0h2p0--5-5----0h3p0h2p0h2p0--------
A----------------3-3-------------------3-3---
E--------------------------------------1-1---

Riff 2 4x
Riff 3 twice

Riff 4 7x
D-------------------9------9---
A-0-5-0-2-0-2-0-0---7------7---
E---------------------0000-----

Riff 4 ending
D-------------------4-----------
A-0-5-0-2-0-2-0-0---2-----------

Riff 2 8x
Riff 3 twice
Riff 4 7x then ending

Riff 5 once
D-5--------4--------10--------9--------5--------4---------10---------9-9-9---
A-3-333333-2-222222--8-888888-7-777777-3-333333-2-222222---8-888888--7-7-7---

Riff 6 4x
D-5-4------------------------
A-3-2-222222----4-7----------
E---------------2-5-555555---

Riff 5 once
Riff 6 8x
Riff 2 4x
Riff 4 3x then ending
Riff 2 8x
Riff 3 twice
Riff 4 7x then ending
Riff 2 4x
then the song ends with:
D-9-9-9-9-9-9-9-9-9-9-9-9-9-10-10-9-9-9-9-9-9-9-9-9-9-9-9-9-9-7-7-9-9-9-9-9-9-9-9-9-9-9-
A-7-7-7-7-7-7-7-7-7-7-7-7-7--8--8-7-7-7-7-7-7-7-7-7-7-7-7-7-7-5-5-7-7-7-7-7-7-7-7-7-7-7-

D-9-9-9----9/
A-7-7-7----7/

Any questions, corrections, blah blah blah send me an E-mail Pantera9560@aol.com w/ the
subj. "Destruction tabs." Also I would really appreciate some feedback.
THRASH TILL DEATH!!!

  Visit MetalTabs.com for more metal tablature

bottom separator

Contact Us | Privacy Policy | Disclaimer | Legal Notice
Copyright © 2001-2014 MetalTabs.com. All Rights Reserved.