top separator

Home

Forum

What's New

Submit a Tab

FAQ

Links

Contact Us

Link to Us

MuSpy.com

MetalTabs.com logo

Bands

0-9

A

B

C

D

E

F

G

H

I

J

K

L

M

N

O

P

Q

R

S

T

U

V

W

X

Y

Z

Search

What

Where
 

Cemetary - "Where The Fire Forever Burns" Guitar Tab

Plain Text Version
More Cemetary Tabs

Hits: 2629
Updated: 2003-04-09 14:38:22

 

Important note
This tab is available online because we obtained explicit permission from Cemetary or their label.


#----------------------------------PLEASE NOTE---------------------------------#
#This file is the author's own work and represents their interpretation of the #
#song. You may only use this file for private study, scholarship, or research. #
#Unless specified otherwise, this is NOT an official tab from the band members.#
#------------------------------------------------------------------------------#

  Visit MetalTabs.com for more metal tablature
  
Artist : Cemetary
Song   : Where The Fire Forever Burns
Album  : Godless Beauty

transcribed by [xanathar] : xanathar@softhome.net

Tuning : Dropped D [DADGBe]


RIFF 1
Guitar 1 (Acoustic)				    x8
e|----------------------------------------------------|
B|--3----3---3---3----3---3---3----3---3---3----3---3-|
G|----2----2-------2----2-------2----2-------2----2---|
D|----------------------------------------------------|
A|----------------------------------------------------|
D|----------------------------------------------------|

Guitar 2 (Acoustic)
e|----------------------------------------------------|
B|-3----3----1----------------------------------------|
G|--------------3----3---2---0----2-2/3---2---2---2---|
D|----------------------------------------------------|
A|----------------------------------------------------|
D|----------------------------------------------------|


Then, pick this slide:
e|---------|
B|---------|
G|---------|
D|--12\\---|
A|---------|
D|---------|


RIFF 2
Guitar 1						    x2
e|------------------------------------------------------------|
B|------------------------------------------------------------|
G|------------------------------------------------------------|
D|------------------------------------------------------------|
A|--0---------0-----------0--1----0----------0-----------0--1-|
D|--0---------0-----------0--1----0----------0-----------0--1-|

Guitar 2
e|------------------------------------------------------------|
B|------------------------------------------------------------|
G|------------------------------------------------------------|
D|----12---------12-11-12-14-15-----12---------12-------------|
A|-12----11~--12-----------------12----11~--12----11-12-------|
D|------------------------------------------------------13-14-|
	 ah			       ah


RIFF 3
Guitar 1						          x2
e|------------------------------------------------------------------|
B|------------------------------------------------------------------|
G|------------------------------------------------------------------|
D|------------------------------------------------------------------|
A|--0-0-0-0-0-0-0-0-0-0-0-0-0-0-0-1-0-0-0-0-0-0-0-0-0-0-0-0-0-0-0-1-|
D|--0-0-0-0-0-0-0-0-0-0-0-0-0-0-0-1-0-0-0-0-0-0-0-0-0-0-0-0-0-0-0-1-|
    * * * * * * * * * * * * * * *   * * * * * * * * * * * * * * *

Guitar 2
e|------------------------------------------------------------------|
B|------------------------------------------------------------------|
G|------------------------------------------------------------------|
D|-----12------------12-11-12-14-15------12----------12-------------|
A|-12------11~---12------------------12------11~--12----11-12-------|
D|------------------------------------------------------------13-14-|
	   ah				     ah


RIFF 4
Guitar 1				      x2
e|----------------------------------------------|
B|----------------------------------------------|
G|----------------------------------------------|
D|----------------------------------------------|
A|--7----------8----------7----------8---2--3---|
D|--7----------8----------7----------8---2--3---|

Guitar 2 (Acoustic)
e|----------------------------------------------|
B|--5---5~-----6---6~-----5---5~----------------|
G|-----------------------------------5---4--5---|
D|----7----------7----------7-------------------|
A|----------------------------------------------|
D|----------------------------------------------|


RIFF 5
Guitar 1					    x4
e|----------------------------------------------------|
B|----------------------------------------------------|
G|----------------------------------------------------|
D|----------------------------------------------------|
A|-12------10---8--------7---5----7---8---7-----------|
D|-12------10---8--------7---5----7---8---7-----------|

Guitar 2 (Acoustic)
e|----------------------------------------------------|
B|--3----3---3---3----3---3---3----3---3---3----3---3-|
G|----2----2-------2----2-------2----2-------2----2---|
D|----------------------------------------------------|
A|----------------------------------------------------|
D|----------------------------------------------------|

Guitar 3 (Acoustic)
e|----------------------------------------------------|
B|-3----3----1----------------------------------------|
G|--------------3----3---2---0----2-2b3---2---2---2---|
D|----------------------------------------------------|
A|----------------------------------------------------|
D|----------------------------------------------------|


Play RIFF 2

Play RIFF 3

Play RIFF 4

Play RIFF 5


RIFF 6
e|--------------------------------------------------------------|
B|--------------------------------------------------------------|
G|--------------------------------------------------------------|
D|--------------------------------------------------------------|
A|-0----0--------8----8--------10---------------8---------------|
D|-0----0--0-0---8----8--8-8---10---15-14tr15---8---8-8--14-12--|
	   * *           * *			    * *
e|--------------------------------------------------------------|
B|--------------------------------------------------------------|
G|--------------------------------------------------------------|
D|--------------------------------------------------------------|
A|-0----0--------8----8--------10---------------12--------------|
D|-0----0--0-0---8----8--8-8---10---15-14tr15---12--12-12-17-15-|
	   * *		 * *			     *  *

Play RIFF 6

Play RIFF 6 x2 (Solo Rhythm)


SOLO
e|-----------------------------------------------------------------------|
B|---------------------------------------------------------------18------|
G|-------------------------17----------------17-17--17h19-19--19----19~--|
D|--10h12-12~-12/15/17--19----19~---17h19-19-----------------------------|
A|-----------------------------------------------------------------------|
D|-----------------------------------------------------------------------|

e|----------------------------------------------------------------------------|
B|----------------------------------------------------------------------------|
G|-17-15-14~-14--------------------------------------------------12-----------|
D|--------------17-15~-15-14-14~-14-14h15-14-12--12h14-14--14/15----15-14-12~-|
A|----------------------------------------------------------------------------|
D|----------------------------------------------------------------------------|

e|------------------------------------------------------------------------|
B|------------------------------------------------------------------------|
G|------------------------------------------------------------------------|
D|-10h12-12~-10-----------------10---------------------------10h12p10-12~-|
A|--------------12-10-10h12-12~----12~--12\10-10\8-8/10-12~---------------|
D|------------------------------------------------------------------------|

e|------------------------------------------------------------------------|
B|---------------------------------------20p18-15--13h15-15~~~------------|
G|------------------------------------------------------------------------|
D|-15h17-17~--17p15-15~--15p14-14-14~~------------------------------------|
A|------------------------------------------------------------------------|
D|------------------------------------------------------------------------|


Play RIFF 4

Play RIFF 5



notation:
^   =  bend [ ^ = half, ^^ = whole, etc. ]
^r  =  bend and release
x   =  mute with fret-hand
*   =  mute with palm-hand
X\\ =  pick slide
h   =  hammer-on
p   =  pull-off
~   =  vibrato
t   =  tap-on
/   =  slide up
\   =  slide down
h.  =  harmonics
ah  =  artificial harmonic
(9) =  ghost note
tm  =  trem picking
tr  =  trill

  Visit MetalTabs.com for more metal tablature

bottom separator

Contact Us | Privacy Policy | Disclaimer | Legal Notice
Copyright © 2001-2014 MetalTabs.com. All Rights Reserved.