top separator

Home

Forum

What's New

Submit a Tab

FAQ

Links

Contact Us

Link to Us

MuSpy.com

MetalTabs.com logo

Bands

0-9

A

B

C

D

E

F

G

H

I

J

K

L

M

N

O

P

Q

R

S

T

U

V

W

X

Y

Z

Search

What

Where
 

On Thorns I Lay - "Alantis II." Guitar Tab

Plain Text Version
More On Thorns I Lay Tabs

Hits: 3921
Updated: 2003-04-04 11:19:02

 

By:

adrenaline

sendpm.gif

email.gif

Important note
We did our best to reach On Thorns I Lay and ask for their permission to publish this tab. Unfortunately they did not respond to our requests or we could not find a way to contact them. This tab is available online until On Thorns I Lay tells us to take it down.


#----------------------------------PLEASE NOTE---------------------------------#
#This file is the author's own work and represents their interpretation of the #
#song. You may only use this file for private study, scholarship, or research. #
#Unless specified otherwise, this is NOT an official tab from the band members.#
#------------------------------------------------------------------------------#

  Visit MetalTabs.com for more metal tablature
  
Band:  (On thorns i lay)
Album: (Orama)
Song:  (Atlantis II)

Transcribed By: (Adel Restom(Adrenaline Detonator))on 4-2-2003
Email:          (adrenaline@ureach.com)

Tune your guitar half step down ..
6th string: D#.
5th string: G#.
4th string: C#.
3d  string: F#.
2nd string: A#.
1st string: D#.

If u saw my early postings in this forum (www.metaltabs.com forum) u'd notice
that i usually tab only the solos,this time i tabbed every thing 4 u even
the flute part in the song (well i'm not 100% shure that it's a flute maybe
clarinette).When i usually read a tab and there's a rhythm i see the chord
written several times and it confuses me so i have 2 figure out the rhythm
by my self,so i decided 2 help u,so i'm gonna tab the chord and it's name and
i'll draw u the rhythm figure so u'll find beside each chord his rhythmetic
figure number (Of course u should find the tempo by your self) so good luck
and have fun....


~:Vibrato.
s:slide from note 2 note.
h:hammer on.
p:pull of.
/:trimolo picking (if above the mesure) or bend up.
\:bend down.
.:palm muted.

|   :  half note .
|_| :  2 half notes = whole note.
v   :  pick hit.
x   :  palm muted pick hit.
o   :  mute all strings with your palm.

Rhythm 1:        Rhythm 2:        Rhythm 3:                Rhythm 4:

|=|=|=|=|=|     |=|=|=|=|       |=|=|=|=|=|=|=|=|=|     |=|=|=|=|=|=|=|=|=|=|
| | | | | |     | | | | |       | | | | | | | | | |     | | | | | | | | | | |
| | | | | |     | | | | |       | | | | | | | | | |     | | | | | | | | | | |
x x x x x x     x x x x x       x x x x x x x x x x     v v x v v v x v o v o
    |_| |_|     |_|             |_| |_| |_| |_|         |_|     |_|

Rhythm 5:

|=|=|=|=|=|=|=|=|=|=|=|
| | | | | | | | | | | |
| | | | | | | | | | | |
x x x x x x x x x x x x
    |_|   |_|   |_|

As you noticed in the song 2 obtein the fade in effect assign your expression
pedal to volume control and slowly push the pedal 2 the max while your playing
the next mesure ,i'll b writing on top of every mesure the chord name
if (there r chords used)and the rhythm #,so when you see the chord don't play
it once but play as shown in the rhythm figure..

   F1 F1 F1 F1 F1 F1 F1 F1 F1 F1 F1 F1 F1 F1 F1 F1
|-------------------------------------------------------------------|
|-------------------------------------------------------------------|
|-------------------------------------------------------------------|
|--3--3--3--3--3--3--3--3--3--3--3--3--3--3--3--3-------------------|
|--3--3--3--3--3--3--3--3--3--3--3--3--3--3--3--3-------------------|
|--1--1--1--1--1--1--1--1--1--1--1--1--1--1--1--1-------------------|

Start playing this mesure when the volume reaches the maximum,and
keep on playing it while the solo plays..

   F2 F2 E2 E2 F2 F2 E2 E2 F2 F2 E2 E2 F2 F2
|-------------------------------------------------------------------|
|-------------------------------------------------------------------|
|-------------------------------------------------------------------|
|--3--3--2--2--3--3--2--2--3--3--2--2--3--3-------------------------|
|--3--3--2--2--3--3--2--2--3--3--2--2--3--3-.-.-.-.-.-.-.-.-.-.-.-.-|
|--1--1--0--0--1--1--0--0--1--1--0--0--1--1-1-1-1-1-1-1-0-0-0-0-0-0-|

Like i said the previous mesure continues 2 play with the solo
(well not realy a solo),repeat next mesure twice..

|-------------------------------------------------------------------|
|-------------------------------------------------------------------|
|--12h13~-13p12p10h12~---12h13~-13p12p10h12~-13p12p10h12p10s9~------|
|-------------------------------------------------------------------|
|-------------------------------------------------------------------|
|-------------------------------------------------------------------|

Repeat twice:

|-------------------------------------------------------------------|
|-------------------------------------------------------------------|
|--15h17~-17p15p13h15~---15h17~-17p15p13h15~-17p15p13h15p13s12~-----|
|-------------------------------------------------------------------|
|-------------------------------------------------------------------|
|-------------------------------------------------------------------|

|-------------------------------------------------------------------|
|-----------------------------10h11h13-14~--14----------------------|
|---------------------10h12h13----------------12-13-10-12-9-10------|
|-------------10h11h13----------------------------------------------|
|--10-10h11h13------------------------------------------------------|
|-------------------------------------------------------------------|

|-------------------------------------------------------------------|
|----------------------------------------13~-----------------13-----|
|--7-9--12-10-9-10-10h12p10p9h10----12h13---13p12s10-12-13-15-------|
|-------------------------------------------------------------------|
|-------------------------------------------------------------------|
|-------------------------------------------------------------------|

             /        /
|--15p13h15-16p15p13-20-18-16~-15h16s13~-12~-16~--------------------|
|-------------------------------------------------------------------|
|-------------------------------------------------------------------|
|-------------------------------------------------------------------|
|-------------------------------------------------------------------|
|-------------------------------------------------------------------|

Now i tabbed the soft solo i don't really know if it's a classic
guitar playing or no any way it sound's very beautiful as this mesure
repeats it self with few changes the flute comes in ..

|-------------------------------------------------------------------|
|-------------------------------------------------------------------|
|-------------------------------------------------------------------|
|--6~-8~-10~-11~-10~-8~-6~-8~-6~-8~-6~-10~-5~-6~-8~-5~--------------|
|-------------------------------------------------------------------|
|-------------------------------------------------------------------|

Flute comes in..(Use distortion and move the mics indicator 2 the left
2 get a smooth heart breacking sound 4 the flute and use an acoustic
patch 4 the other sound)..

                                             F3  F3  F(Strike once)
|----------------16-15-13-------------------------------------------|
|--------------13--------13-14-13-----------------------------------|
|--10-12~-13-15------------------13-10------------------------------|
|--------------------------------------10~---3---3---3--------------|
|--------------------------------------------3---3---3--------------|
|--------------------------------------------1---1---1--------------|
|                                                                   |
|-------------------------------------------------------------------|
|-------------------------------------------------------------------|
|-------------------------------------------------------------------|
|--6~-8~-10~-11~-10~-8~-6~-8~-6~-8~-6~-10~--------------------------|
|-------------------------------------------------------------------|
|-------------------------------------------------------------------|


|----------------16-15-13-------------------------------------------|
|--------------13--------13-14-13-----------------------------------|
|--10-12~-13-15------------------13-10------------------------------|
|--------------------------------------10~--------------------------|
|-------------------------------------------------------------------|
|-------------------------------------------------------------------|
|                                                                   |
|-------------------------------------------------------------------|
|-------------------------------------------------------------------|
|-------------------------------------------------------------------|
|--6~-8~-10~-11~-10~-8~-6~-8~-6~-8~-6~-10~-8~-11~-8~-11~------------|
|-------------------------------------------------------------------|
|-------------------------------------------------------------------|


                                             F3  F3  F(Strike once)
|----------------16-15-13-------------------------------------------|
|--------------13--------13-14-13-----------------------------------|
|--10-12~-13-15------------------13-10------------------------------|
|--------------------------------------10~---3---3---3--------------|
|--------------------------------------------3---3---3--------------|
|--------------------------------------------1---1---1--------------|
|                                                                   |
|-------------------------------------------------------------------|
|-------------------------------------------------------------------|
|-------------------------------------------------------------------|
|--6~-8~-10~-11~-10~-8~-6~-8~-6~-8~-6~-10~--------------------------|
|-------------------------------------------------------------------|
|-------------------------------------------------------------------|


|----------------16-15-13-------------------------------------------|
|--------------13--------13-14-13-----------------------------------|
|--10-12~-13-15------------------13-10------------------------------|
|--------------------------------------10~--------------------------|
|-------------------------------------------------------------------|
|-------------------------------------------------------------------|
|                                                                   |
|-------------------------------------------------------------------|
|-------------------------------------------------------------------|
|-------------------------------------------------------------------|
|--6~-8~-10~-11~-10~-8~-6~-8~-6~-8~-6~-10~-8~-11~-8~-11~------------|
|-------------------------------------------------------------------|
|-------------------------------------------------------------------|

   F4     C#4         F4      C#4        F4      C#4
|-------------------------------------------------------------------|
|-------------------------------------------------------------------|
|----------6------------------6------------------6------------------|
|--3-6~-5~-6-5h6p5-6~-3-6~-5~-6-5h6p5-6~-3-6~-5~-6-5h6p5-6~---------|
|--3-------4----------3-------4----------3-------4------------------|
|--1------------------1------------------1--------------------------|

   F4     C#4         F4      C#4        F4      C#4
|-------------------------------------------------------------------|
|-------------------------------------------------------------------|
|----------6------------5~-3~-6------------5~-3~-6------------------|
|--3-6~-5~-6-5h6p5-6~-3-------6-5h6p5-6~-3-------6-5h6p5-6~---------|
|--3-------4----------3-------4----------3-------4------------------|
|--1------------------1------------------1--------------------------|

   F4     C#4         F4      C#4        F(Strike once)
|-------------------------------------------------------------------|
|-------------------------------------------------------------------|
|----5~-3~-6------------5~-3~-6-------------------------------------|
|--3-------6-5h6p5-6~-3-------6-5h6p5-6~-3--------------------------|
|--3-------4----------3-------4----------3--------------------------|
|--1------------------1------------------1--------------------------|

Repeat 4 times:

        Distortion guitar I:
|-------------------------------------------------------------------|
|-------------------------------------------------------------------|
|--17-17-17-15-15-13~-15s17-17~-------------------------------------|
|-------------------------------------------------------------------|
|-------------------------------------------------------------------|
|-------------------------------------------------------------------|
|       Acoustic guitar:                                            |
|-------------------------------------------------------------------|
|-------------------------------------------------------------------|
|--------------------------12----13~--------------------------------|
|-----------------------11----11------------------------------------|
|-------------------------------------------------------------------|
|-------------------------------------------------------------------|
|  F5   Distortion guitar II:                                       |
|-------------------------------------------------------------------|
|------.-.----------------------------------------------------------|
|------3-3-5h6p5p3h5~--3-5------------------------------------------|
|--3----------------------------------------------------------------|
|--3----------------------------------------------------------------|
|--1----------------------------------------------------------------|

Now the trimolo picking,well each trimolo picked note here is played 4
times (i mean strick the same note 4 times in a tremolo way)
Usually the trimolo is played by stricking down then up,but here it's better
to start by stricking up then down to keep the speed up while mooving from
string 2 another ..


Repeat next mesure 7 times :

     /   /   /   /      /   /   /   /
|-------------------------------------------------------------------|
|-------------------------------------------------------------------|
|-------------------------------------------------------------------|
|--5-.-6-.-8-.-6-.----2-.-3-.-5-.-3-.---2-3-5-5/6~\5----------------|
|----8---8---8---8------4---4---4---4-------------------------------|
|-------------------------------------------------------------------|

     /   /   /   /      /   /   /   /
|-------------------------------------------------------------------|
|-------------------------------------------------------------------|
|-------------------------------------------------------------------|
|--5-.-6-.-8-.-6-.----2-.-3-.-5-.-3-.-------------------------------|
|----8---8---8---8------4---4---4---4-------------------------------|
|-------------------------------------------------------------------|

   F4     C#4         F4      C#4        F4      C#4
|-------------------------------------------------------------------|
|-------------------------------------------------------------------|
|----5~-3~-6------------5~-3~-6------------5~-3~-6------------------|
|--3-------6-5h6p5-6~-3-------6-5h6p5-6~-3-------6-5h6p5-6~---------|
|--3-------4----------3-------4----------3-------4------------------|
|--1------------------1------------------1--------------------------|

   F4     C#4
|-------------------------------------------------------------------|
|-------------------------------------------------------------------|
|----5~-3~-6--------------------------------------------------------|
|--3-------4-5h6p5-6~-----------------------------------------------|
|--3-------4--------------------------------------------------------|
|--1----------------------------------------------------------------|

    /   /   /   /      /   /   /   /
|-------------------------------------------------------------------|
|-------------------------------------------------------------------|
|-------------------------------------------------------------------|
|--8-.-10-.-11-.-10-.----2-.-3-.-5-.-3-.---2-3-5-5/6~\5-------------|
|----11---11---11---11-----4---4---4---4----------------------------|
|-------------------------------------------------------------------|


Repeat next mesure twice:

    /   /   /   /      /   /   /   /
|-------------------------------------------------------------------|
|-------------------------------------------------------------------|
|-------------------------------------------------------------------|
|--5-.-6-.-8-.-6-.----2-.-3-.-5-.-3-.---2-3-5-5/6~\5----------------|
|----8---8---8---8------4---4---4---4-------------------------------|
|-------------------------------------------------------------------|


    /   /   /   /      /   /   /   /    F
|-------------------------------------------------------------------|
|-------------------------------------------------------------------|
|-------------------------------------------------------------------|
|--5-.-6-.-8-.-6-.----2-.-3-.-5-.-3-.---3---------------------------|
|----8---8---8---8------4---4---4---4---3---------------------------|
|---------------------------------------1---------------------------|

Hail 2 all metal listeners..

  Visit MetalTabs.com for more metal tablature

bottom separator

Contact Us | Privacy Policy | Disclaimer | Legal Notice
Copyright © 2001-2014 MetalTabs.com. All Rights Reserved.