top separator

Home

Forum

What's New

Submit a Tab

FAQ

Links

Contact Us

Link to Us

MuSpy.com

MetalTabs.com logo

Bands

0-9

A

B

C

D

E

F

G

H

I

J

K

L

M

N

O

P

Q

R

S

T

U

V

W

X

Y

Z

Search

What

Where
 

Forgotten Woods - "In my darkest visions" Guitar Tab

Plain Text Version
More Forgotten Woods Tabs

Hits: 4795
Rated: 3.25 out of 5 (4 votes)
Updated: 2003-03-30 12:43:22

 

By:

Darkenelf

sendpm.gif

email.gif

Important note
This tab is available online because we obtained explicit permission from Forgotten Woods or their label.


#----------------------------------PLEASE NOTE---------------------------------#
#This file is the author's own work and represents their interpretation of the #
#song. You may only use this file for private study, scholarship, or research. #
#Unless specified otherwise, this is NOT an official tab from the band members.#
#------------------------------------------------------------------------------#

  Visit MetalTabs.com for more metal tablature
  
Band: Forgotten Woods
Album: As the Wolves Gather
Song: In my Darkest Visions
Tabbed by: Martijn Wietsma
Email: dalvanian@yahoo.com
Date: 01-02-2003

Tune down to D#

Riff A
|--------------------------------------------------------|
|--------------------------------------------------------|
|--------------------------------------------------------|
|-13-13-13-13-13-13-13-13-12-12-12-12-12-12-12-12--------|
|-11-11-11-11-11-11-11-11-10-10-10-10-10-10-10-10--------|
|--------------------------------------------------------|
							(2x)
Riff B
|--------------------------------------------------------|
|--------------------------------------------------------|
|-13-13-13-13-13-13-13-13-12-12-12-12-12-12-12-12--------|
|-11-11-11-11-11-11-11-11-10-10-10-10-10-10-10-10--------|
|--------------------------------------------------------|
|--------------------------------------------------------|
							(2x)
Riff A
|--------------------------------------------------------|
|--------------------------------------------------------|
|--------------------------------------------------------|
|-13-13-13-13-13-13-13-13-12-12-12-12-12-12-12-12--------|
|-11-11-11-11-11-11-11-11-10-10-10-10-10-10-10-10--------|
|--------------------------------------------------------|
							(2x)
Riff B
|--------------------------------------------------------|
|--------------------------------------------------------|
|-13-13-13-13-13-13-13-13-12-12-12-12-12-12-12-12--------|
|-11-11-11-11-11-11-11-11-10-10-10-10-10-10-10-10--------|
|--------------------------------------------------------|
|--------------------------------------------------------|
							(2x)
Riff C
|--------------------------------------------------------|
|--------------------------------------------------------|
|--------------------------------------------------------|
|-11-11-11-11-11-11-11-11-11-11-11-11-11-11-11-11--------|
|--8--8--8--8--8--8--8--8--9--9--9--9--9--9--9--9--------|
|--------------------------------------------------------|

|--------------------------------------------------------|
|--------------------------------------------------------|
|--------------------------------------------------------|
|-11-11-11-11-11-11-11-11-11-11-11-11-11-11-11-11--------|
|-10-10-10-10-10-10-10-10--9--9--9--9--9--9--9--9--------|
|--------------------------------------------------------|
							(2x)
Riff D
|-------------------------------------------------------------|
|-------------------------------------------------------------|
|-------------------------------------------------------------|
|-----11------11------11------11------11-----11-----11-----11-|
|-8-8-----8-8-----8-8-----8-8-----9-9----9-9----9-9----9-9----|
|-------------------------------------------------------------|

|-------------------------------------------------------------|
|-------------------------------------------------------------|
|-------------------------------------------------------------|
|-------11-------11--------11-------11----8-11-8----8-11-8----|
|-10-10----10-10-----10-10----10-10-----8---------8-----------|
|-------------------------------------------------------------|

|--------------------------------------------------------|
|--------------------------------------------------------|
|--------------------------------------------------------|
|---8-11-8-----8-11-8------------------------------------|
|-8----------8-------------------------------------------|
|--------------------------------------------------------|
							(2x)
Riff A
|--------------------------------------------------------|
|--------------------------------------------------------|
|--------------------------------------------------------|
|-13-13-13-13-13-13-13-13-12-12-12-12-12-12-12-12--------|
|-11-11-11-11-11-11-11-11-10-10-10-10-10-10-10-10--------|
|--------------------------------------------------------|
							(2x)
Riff B
|--------------------------------------------------------|
|--------------------------------------------------------|
|-13-13-13-13-13-13-13-13-12-12-12-12-12-12-12-12--------|
|-11-11-11-11-11-11-11-11-10-10-10-10-10-10-10-10--------|
|--------------------------------------------------------|
|--------------------------------------------------------|
							(2x)
Riff A
|--------------------------------------------------------|
|--------------------------------------------------------|
|--------------------------------------------------------|
|-13-13-13-13-13-13-13-13-12-12-12-12-12-12-12-12--------|
|-11-11-11-11-11-11-11-11-10-10-10-10-10-10-10-10--------|
|--------------------------------------------------------|
							(2x)
Riff B
|--------------------------------------------------------|
|--------------------------------------------------------|
|-13-13-13-13-13-13-13-13-12-12-12-12-12-12-12-12--------|
|-11-11-11-11-11-11-11-11-10-10-10-10-10-10-10-10--------|
|--------------------------------------------------------|
|--------------------------------------------------------|
							(2x)
Riff C
|--------------------------------------------------------|
|--------------------------------------------------------|
|--------------------------------------------------------|
|-11-11-11-11-11-11-11-11-11-11-11-11-11-11-11-11--------|
|--8--8--8--8--8--8--8--8--9--9--9--9--9--9--9--9--------|
|--------------------------------------------------------|

|--------------------------------------------------------|
|--------------------------------------------------------|
|--------------------------------------------------------|
|-11-11-11-11-11-11-11-11-11-11-11-11-11-11-11-11--------|
|-10-10-10-10-10-10-10-10--9--9--9--9--9--9--9--9--------|
|--------------------------------------------------------|
							(2x)
Riff E (solo)
|------------------------------------------------------------|
|-6-9-8--6-9-8--6-9-8--6-9-8--7-10-9--7-10-9--7-10-9--7-10-9-|
|------------------------------------------------------------|
|------------------------------------------------------------|
|------------------------------------------------------------|
|------------------------------------------------------------|

|--------------------------------------------------------|
|-8-11-10--8-11-10--8-11-10--8-11-10---------------------|
|--------------------------------------------------------|
|--------------------------------------------------------|
|--------------------------------------------------------|
|--------------------------------------------------------|

|--------------------------------------------------------|
|-11-14-13--11-14-13--11-14-13--11-14-13-----------------|
|--------------------------------------------------------|
|--------------------------------------------------------|
|--------------------------------------------------------|
|--------------------------------------------------------|

|------------------------------------------------------------|
|-6-8-9--6-8-9--6-8-9--6-8-9--7-9-10--7-9-10--7-9-10--7-9-10-|
|------------------------------------------------------------|
|------------------------------------------------------------|
|------------------------------------------------------------|
|------------------------------------------------------------|

|--------------------------------------------------------|
|-8-10-11--8-10-11--8-10-11--8-10-11---------------------|
|--------------------------------------------------------|
|--------------------------------------------------------|
|--------------------------------------------------------|
|--------------------------------------------------------|

|--------------------------------------------------------|
|-11-14-13--11-13-14--11-14-13--11-13-14-----------------|
|--------------------------------------------------------|
|--------------------------------------------------------|
|--------------------------------------------------------|
|--------------------------------------------------------|

|----------9-8-----------9-8------------10-9-------------10-9-|
|-6-9-8--6------6-9-8--6------7-10-9--7--------7-10-9--7------|
|-------------------------------------------------------------|
|-------------------------------------------------------------|
|-------------------------------------------------------------|
|-------------------------------------------------------------|

|------------11-10-------------11-10---------------------|
|-8-11-10--8--------8-11-10--8---------------------------|
|--------------------------------------------------------|
|--------------------------------------------------------|
|--------------------------------------------------------|
|--------------------------------------------------------|

|--------------14-13---------------14-13-----------------|
|-11-14-13--11--------11-14-13--11-----------------------|
|--------------------------------------------------------|
|--------------------------------------------------------|
|--------------------------------------------------------|
|--------------------------------------------------------|

|------------------------------------------------------------|
|-6-9-8--6-8-9--6-9-8--6-8-9--7-10-9--7-9-10--7-10-9--7-9-10-|
|------------------------------------------------------------|
|------------------------------------------------------------|
|------------------------------------------------------------|
|------------------------------------------------------------|

|--------------------------------------------------------|
|-8-11-10--8-10-11--8-11-10--8-10-11---------------------|
|--------------------------------------------------------|
|--------------------------------------------------------|
|--------------------------------------------------------|
|--------------------------------------------------------|

|--------------------------------------------------------|
|-11-14-13--11-13-14--11-14-13--11-9-7-------------------|
|--------------------------------------------------------|
|--------------------------------------------------------|
|--------------------------------------------------------|
|--------------------------------------------------------|

Riff C
|--------------------------------------------------------|
|--------------------------------------------------------|
|--------------------------------------------------------|
|-11-11-11-11-11-11-11-11-11-11-11-11-11-11-11-11--------|
|--8--8--8--8--8--8--8--8--9--9--9--9--9--9--9--9--------|
|--------------------------------------------------------|

|--------------------------------------------------------|
|--------------------------------------------------------|
|--------------------------------------------------------|
|-11-11-11-11-11-11-11-11-11-11-11-11-11-11-11-11--------|
|-10-10-10-10-10-10-10-10--9--9--9--9--9--9--9--9--------|
|--------------------------------------------------------|
							(2x)
Riff D
|-------------------------------------------------------------|
|-------------------------------------------------------------|
|-------------------------------------------------------------|
|-----11------11------11------11------11-----11-----11-----11-|
|-8-8-----8-8-----8-8-----8-8-----9-9----9-9----9-9----9-9----|
|-------------------------------------------------------------|

|-------------------------------------------------------------|
|-------------------------------------------------------------|
|-------------------------------------------------------------|
|-------11-------11--------11-------11----8-11-8----8-11-8----|
|-10-10----10-10-----10-10----10-10-----8---------8-----------|
|-------------------------------------------------------------|

|--------------------------------------------------------|
|--------------------------------------------------------|
|--------------------------------------------------------|
|---8-11-8-----8-11-8------------------------------------|
|-8----------8-------------------------------------------|
|--------------------------------------------------------|
							(2x)
Riff A
|--------------------------------------------------------|
|--------------------------------------------------------|
|--------------------------------------------------------|
|-13-13-13-13-13-13-13-13-12-12-12-12-12-12-12-12--------|
|-11-11-11-11-11-11-11-11-10-10-10-10-10-10-10-10--------|
|--------------------------------------------------------|
							(2x)
Riff B
|--------------------------------------------------------|
|--------------------------------------------------------|
|-13-13-13-13-13-13-13-13-12-12-12-12-12-12-12-12--------|
|-11-11-11-11-11-11-11-11-10-10-10-10-10-10-10-10--------|
|--------------------------------------------------------|
|--------------------------------------------------------|
							(2x)
Riff A
|--------------------------------------------------------|
|--------------------------------------------------------|
|--------------------------------------------------------|
|-13-13-13-13-13-13-13-13-12-12-12-12-12-12-12-12--------|
|-11-11-11-11-11-11-11-11-10-10-10-10-10-10-10-10--------|
|--------------------------------------------------------|
							(2x)
Riff B
|--------------------------------------------------------|
|--------------------------------------------------------|
|-13-13-13-13-13-13-13-13-12-12-12-12-12-12-12-12--------|
|-11-11-11-11-11-11-11-11-10-10-10-10-10-10-10-10--------|
|--------------------------------------------------------|
|--------------------------------------------------------|
							(2x)
Riff C
|--------------------------------------------------------|
|--------------------------------------------------------|
|--------------------------------------------------------|
|-11-11-11-11-11-11-11-11-11-11-11-11-11-11-11-11--------|
|--8--8--8--8--8--8--8--8--9--9--9--9--9--9--9--9--------|
|--------------------------------------------------------|

|--------------------------------------------------------|
|--------------------------------------------------------|
|--------------------------------------------------------|
|-11-11-11-11-11-11-11-11-11-11-11-11-11-11-11-11--------|
|-10-10-10-10-10-10-10-10--9--9--9--9--9--9--9--9--------|
|--------------------------------------------------------|
							(2x)
Riff D
|-------------------------------------------------------------|
|-------------------------------------------------------------|
|-------------------------------------------------------------|
|-----11------11------11------11------11-----11-----11-----11-|
|-8-8-----8-8-----8-8-----8-8-----9-9----9-9----9-9----9-9----|
|-------------------------------------------------------------|

|-------------------------------------------------------------|
|-------------------------------------------------------------|
|-------------------------------------------------------------|
|-------11-------11--------11-------11----8-11-8----8-11-8----|
|-10-10----10-10-----10-10----10-10-----8---------8-----------|
|-------------------------------------------------------------|

|--------------------------------------------------------|
|--------------------------------------------------------|
|--------------------------------------------------------|
|---8-11-8-----8-11-8------------------------------------|
|-8----------8-------------------------------------------|
|--------------------------------------------------------|
							(6x)

Riff F (end riff)
|--------------------------------------------------------|
|--------------------------------------------------------|
|--------------------------------------------------------|
|---8-11-8----8-11-8----8-11-8----8-11-8-----------------|
|-8---------8---------8---------8------------------------|
|--------------------------------------------------------|
							(4x)

  Visit MetalTabs.com for more metal tablature

bottom separator

Contact Us | Privacy Policy | Disclaimer | Legal Notice
Copyright © 2001-2014 MetalTabs.com. All Rights Reserved.