top separator

Home

Forum

What's New

Submit a Tab

FAQ

Links

Contact Us

Link to Us

MuSpy.com

MetalTabs.com logo

Bands

0-9

A

B

C

D

E

F

G

H

I

J

K

L

M

N

O

P

Q

R

S

T

U

V

W

X

Y

Z

Search

What

Where
 

Forgotten Woods - "Winter" Guitar Tab

Plain Text Version
More Forgotten Woods Tabs

Hits: 4599
Rated: 3.00 out of 5 (1 vote)
Updated: 2003-03-30 12:43:03

 

By:

Darkenelf

sendpm.gif

email.gif

Important note
This tab is available online because we obtained explicit permission from Forgotten Woods or their label.


#----------------------------------PLEASE NOTE---------------------------------#
#This file is the author's own work and represents their interpretation of the #
#song. You may only use this file for private study, scholarship, or research. #
#Unless specified otherwise, this is NOT an official tab from the band members.#
#------------------------------------------------------------------------------#

  Visit MetalTabs.com for more metal tablature
  
Band: Forgotten Woods
Album: As The Wolves Gather
Song: Winter
Tabbed by: Martijn Wietsma
Email: dalvanian@yahoo.com
Date: 01-02-2003

Tune down to D#
(Acoustic)

Riff A
|--------------------------------------------------------|
|--------------------------------------------------------|
|-------5-------------5-------------3-------------6------|
|---5-6---6-5-----5-6---6-5-----3-4---4-3-----6-7---7-6--|
|-3-------------3-------------1-------------4------------|
|--------------------------------------------------------|

|--------------------------------------------------------|
|--------------------------------------------------------|
|-------5-------------5-------------3-------------6------|
|---5-6---6-5-----5-6---6-5-----3-4---4-3-----6-7---7-6--|
|-3-------------3-------------1-------------4------------|
|--------------------------------------------------------|

Riff B
|--------------------------------------------------------|
|--------------------------------------------------------|
|-------5-------------5----------------3------------3----|
|---5-6---6-5-----5-6---6-5--------3-4---4-3----3-4---4-3|
|-3-------------3------------4-3-1------------1----------|
|--------------------------------------------------------|

|--------------------------------------------------------|
|--------------------------------------------------------|
|--------------------------------------------------------|
|-------------5-------------5----------------------------|
|-1------5-6----6-5-----5-6---6-5------------------------|
|---4--3--------------3-------------6-4-3--4-6-----------|

Riff B
|--------------------------------------------------------|
|--------------------------------------------------------|
|-------5-------------5----------------3------------3----|
|---5-6---6-5-----5-6---6-5--------3-4---4-3----3-4---4-3|
|-3-------------3------------4-3-1------------1----------|
|--------------------------------------------------------|

|--------------------------------------------------------|
|--------------------------------------------------------|
|--------------------------------------------------3-----|
|-------------5-------------5----------------------5-----|
|-1------5-6----6-5-----5-6---6-5--------------3---5-----|
|---4--3--------------3-------------6-4-3--4-6-----------|

  Visit MetalTabs.com for more metal tablature

bottom separator

Contact Us | Privacy Policy | Disclaimer | Legal Notice
Copyright © 2001-2014 MetalTabs.com. All Rights Reserved.