top separator

Home

Forum

What's New

Submit a Tab

FAQ

Links

Contact Us

Link to Us

MetalTabs.com logo

Bands

0-9

A

B

C

D

E

F

G

H

I

J

K

L

M

N

O

P

Q

R

S

T

U

V

W

X

Y

Z

Search

What

Where
 

Whiplash - "Respect The Dead" Guitar Tab

Plain Text Version
More Whiplash Tabs

Hits: 3577
Updated: 2003-03-30 12:27:27

 

By:

Kramer

sendpm.gif

email.gif

Important note
We did our best to reach Whiplash and ask for their permission to publish this tab. Unfortunately they did not respond to our requests or we could not find a way to contact them. This tab is available online until Whiplash tells us to take it down.


#----------------------------------PLEASE NOTE---------------------------------#
#This file is the author's own work and represents their interpretation of the #
#song. You may only use this file for private study, scholarship, or research. #
#Unless specified otherwise, this is NOT an official tab from the band members.#
#------------------------------------------------------------------------------#

  Visit MetalTabs.com for more metal tablature
  
Whiplash "Respect the Dead" from TICKET TO MAYHEM (1987)

Tabbed by Kramer

Dropped-D tuning

Riff 1 4x
E----------------------------------------------------------------------
B----------------------------------------------------------------------
G----------------------------------------------------------------------
D---------------3---------------2---------------3---------------2------
A---------------1---------------0---------------1---------------0--3---
D-3222222222222---3222222222222---3222222222222---3222222222222----3---

Riff 2 4x
E----------------------------
B----------------------------
G----------------------------
D-9/7/9/7/9--------3--2------
A-7/5/7/5/7--------1--0--3---
D------------2222--------3---

Riff 1 3x
Riff 2 4x

Riff 3 once
E--------------------------------------------------------------------
B--------------------------------------------------------------------
G--------------------------------------------------------------------
D-4-----4-4-----4-4-----4-4------4--3-----3-3-----3-3-----3--2-2-2---
A-2-222-2-2-222-2-2-222-2-2-222--2--1-111-1-1-111-1-1-111-1--0-0-0---
D--------------------------------------------------------------------

Riff 4 4x
E--------------------------
B--------------------------
G--------------------------
D-------3--2---------------
A-------1--0--------0--1---
D-22222-------22222-0--1---

Riff 5A 4x
E--------------------------
B--------------------------
G--------------------------
D--------------------------
A---------------3-0--2h3---
D-000000000000--3-0--2h3---

Riff 5B 4x
E--------------------------
B--------------------------
G--------------------------
D--------------------------
A---------------5-2--4h5---
D-222222222222--5-2--4h5---

Riff 5C 4x
E--------------------------
B--------------------------
G--------------------------
D---------------5-0--4/5---
A-000000000000--3-0--2/3---
D--------------------------

Riff 1 3x
Riff 2 8x
Ending
E------------
B------------
G------------
D------------
A-2-0-2-0-2--
D-2-0-2-0-2--

R.I.P. Tony Bono

Any questions, corrections, blah blah blah send me an E-mail Pantera9560@aol.com w/ the
subj. "Whiplash tabs." Also I would really appreciate some feedback.

  Visit MetalTabs.com for more metal tablature

bottom separator

Contact Us | Privacy Policy | Disclaimer | Legal Notice
Copyright © 2001-2014 MetalTabs.com. All Rights Reserved.