top separator

Home

Forum

What's New

Submit a Tab

FAQ

Links

Contact Us

Link to Us

MetalTabs.com logo

Bands

0-9

A

B

C

D

E

F

G

H

I

J

K

L

M

N

O

P

Q

R

S

T

U

V

W

X

Y

Z

Search

What

Where
 

Heavenwood - "Luna" Guitar Tab

Plain Text Version
More Heavenwood Tabs

Hits: 3962
Updated: 2003-03-30 12:19:40

 

By:

adrenaline

sendpm.gif

email.gif

Important note
We did our best to reach Heavenwood and ask for their permission to publish this tab. Unfortunately they did not respond to our requests or we could not find a way to contact them. This tab is available online until Heavenwood tells us to take it down.


#----------------------------------PLEASE NOTE---------------------------------#
#This file is the author's own work and represents their interpretation of the #
#song. You may only use this file for private study, scholarship, or research. #
#Unless specified otherwise, this is NOT an official tab from the band members.#
#------------------------------------------------------------------------------#

  Visit MetalTabs.com for more metal tablature
  
Band:  (Heavenwood)
Album: (swallow)
Song:  (Luna)

Transcribed By: (Adel Restom(Adrenaline Detonator))on 28-1-2003
Email:          (adrenaline@ureach.com)

Tune your guitar 1 step down.
6th string: d.
5th string: g.
4th string: c.
3rd string: f.
2nd string: a.
1st string: d.

` :to play in a bluesy way : after playing the note mute it with the pick
(or anything else: finger,palm),any way i don't play blues maybe you know better.
~ :vibrato.
s :slide from note to note.
sd:slide down(to low notes).
su:slide up (to high notes)usually the note hoes next to the symbol.
h :hammer on.
p :pull of.
/ :bend up.
\ :bend down.


Bluesy intro: Use here (a kind of blues) patch.If u are a zoom gfx 707II
user i can send you a patch not realy close to the one from the song but
it fits some how.(If you have a close one please send it to me even if it's
not for gfx 707II).

|-------------------------------------------------------------------|
|-------------------------------------------------------------------|
|----12~----11~-11s12s11-9~---12~---11~-----------------------------|
|--9`-----9`----------------9`----9`----12-12-11h12p11~-------------|
|-------------------------------------------------------------------|
|-------------------------------------------------------------------|

Use the pick here kind of softly so the sound won't go 2 loud (u can play it
with your fingers )..
Repeat the next two mesurment 4 times:

|-------------------------------------------------------------------|
|-------------------------------------------------------------------|
|--------------------------------2-----2-----2-----2----------------|
|------2-----2-----2-----2-----2-----2-----2-----2------------------|
|----2-----2-----2-----2-----0-----0-----0-----0--------------------|
|--0-----0-----0-----0----------------------------------------------|

|-------------------------------------------------------------------|
|------1-----1-----1-----1-----3-----3------------------------------|
|----2-----2-----2-----2-----2-----2--------2-----2-----------------|
|--2-----2-----2-----2-----0-----0--------2-----2-------------------|
|---------------------------------------0-----0---------------------|
|-------------------------------------------------------------------|

Use a lite distorted sound , put the mics indicator to the 3d
position if u have 5 positions,to get a smoother sound..

|-------------------------------------------------------------------|
|-------------------------------------------------------------------|
|----12~----11~-11s12s11-9~---12~---11~-----------------------------|
|--9------9-----------------9-----9-----12-12-11h12p11~-------------|
|-------------------------------------------------------------------|
|-------------------------------------------------------------------|

|-------------------------------------------------------------------|
|-------------------------------------------------------------------|
|----12~----11~-11s12s11-9~---12~---11~-----------------------------|
|--9------9-----------------9-----9-----12-12-11h12p11~sd-----------|
|-------------------------------------------------------------------|
|-------------------------------------------------------------------|

Go back to the bluesy sound.
Repeat the next two mesurment 2 times:

|-------------------------------------------------------------------|
|-------------------------------------------------------------------|
|--------------------------------2-----2-----2-----2----------------|
|------2-----2-----2-----2-----2-----2-----2-----2------------------|
|----2-----2-----2-----2-----0-----0-----0-----0--------------------|
|--0-----0-----0-----0----------------------------------------------|

|-------------------------------------------------------------------|
|------1-----1-----1-----1-----3-----3------------------------------|
|----2-----2-----2-----2-----2-----2--------2-----2-----------------|
|--2-----2-----2-----2-----0-----0--------2-----2-------------------|
|---------------------------------------0-----0---------------------|
|-------------------------------------------------------------------|

I couldn't tab the power chords in the background so i leave this to you
have fun..

Blues solo:

|-------------------------------------------------------------------|
|-------------------------------------------------------------------|
|----12~-11s12`-14`-12`-11`-11h12p11s9~sd--12-14-12-14/16~----------|
|--9`---------------------------------------------------------------|
|-------------------------------------------------------------------|
|-------------------------------------------------------------------|

(16) is the bended 14.
|-------------------------------------------------------------------|
|-------------------------------------------------------------------|
|--(16)-(16)`-12-14-12--12-14-12-14/16~-(16)-(16)`-12-14-12~-12s11~-|
|-------------------------------------------------------------------|
|-------------------------------------------------------------------|
|-------------------------------------------------------------------|

|-------------------------------------------------------------------|
|-------------------------------------------------------------------|
|--12---------------------9~sd--------9`-9`-9s11~-9`-9`-9s11~sd-----|
|--12h14-12`-11~sd-------------7s9s12-------------------------------|
|------------------12~s7~-------------------------------------------|
|-------------------------------------------------------------------|

|-------------------------------------------------------------------|
|-------------------------------------------------------------------|
|--12-14-12-14/16~-(16)-(16)`-12-14-12----12-14-12-14/16~-----------|
|-------------------------------------------------------------------|
|-------------------------------------------------------------------|
|-------------------------------------------------------------------|

                       put your finger as a bar to do the slide
|-----------------------15--15--15--15--15--15--15------17--17--17--|
|-------------------------15--15--15--15--15--15--15s17---17--17----|
|--(16)-(16)`-12-14-12----------------------------------------------|
|-------------------------------------------------------------------|
|-------------------------------------------------------------------|
|-------------------------------------------------------------------|

|----17sd-----------------------------------------------------------|
|--17---------------------------------------------------------------|
|-------------------------------------------------------------------|
|-------------------------------------------------------------------|
|-------------------------------------------------------------------|
|-------------------------------------------------------------------|

Distrorted solo:

|-------------------------------------------------------------------|
|-------------------------------------------------------------------|
|--su12`-14~-12s14-16`-14`--12s9~sd--14-12-14~-12s14-16`-14`-12s11~-|
|-------------------------------------------------------------------|
|-------------------------------------------------------------------|
|-------------------------------------------------------------------|

|-------------------------------------------------------------------|
|-------------------------------------------------------------------|
|--12-11-9p7h9~--12-14-12-14/16\14p12~-9h12~--12-14-12-14/16\14p12~-|
|-------------------------------------------------------------------|
|-------------------------------------------------------------------|
|-------------------------------------------------------------------|

|-------------------------------------------------------------------|
|---------------------------------------------------------20-20-----|
|--9h12~--8s9h12p9-12s14h17p14-17-19-19-21-21-19-19-21-21-----------|
|-------------------------------------------------------------------|
|-------------------------------------------------------------------|
|-------------------------------------------------------------------|

|-------------------------------------------------------------------|
|--15-18-20---------------------------------------------------------|
|---keep on repeating until u feel that it's enough-----------------|
|-------------------------------------------------------------------|
|-------------------------------------------------------------------|
|-------------------------------------------------------------------|

|-------------------------------------------------------------------|
|-------------------------------------------------------------------|
|--su14-14~-14p12-10-9~-10~-12--------------------------------------|
|-------------------------------10~--12s10~s12~s14~-----------------|
|-------------------------------------------------------------------|
|-------------------------------------------------------------------|

|-------------------------------------------------------------------|
|--15-18-20---------------------------------------------------------|
|---keep on repeating until u feel that it's enough-----------------|
|-------------------------------------------------------------------|
|-------------------------------------------------------------------|
|-------------------------------------------------------------------|

Keep the sound of your guitar smooth..

|-------------------------------------------------------------------|
|-------------------------------------------------------------------|
|----12~----11~-11s12s11-9~---12~sd---11~---------------------------|
|--9------9-----------------9--------9-----12-12-11h12p11~----------|
|-------------------------------------------------------------------|
|-------------------------------------------------------------------|

|-------------------------------------------------------------------|
|-------------------------------------------------------------------|
|----12~----11~-11s12s11-9~---12~sd---11~---------------------------|
|--9------9-----------------9-----9-----12-12-11h12p11~sd-----------|
|-------------------------------------------------------------------|
|-------------------------------------------------------------------|

The same power chords that i left for you..
Return to the bluesy sound,and use the expression pedal to decrease
the volume and fade out..

|-------------------------------------------------------------------|
|-------------------------------------------------------------------|
|----12~----11~-11s12s11-9~---12~---11~-----------------------------|
|--9`-----9`----------------9`----9`----12-12-11h12p11~-------------|
|-------------------------------------------------------------------|
|-------------------------------------------------------------------|

|-------------------------------------------------------------------|
|-------------------------------------------------------------------|
|----12~----11~-11s12s11-9~---12~---11~-----------------------------|
|--9`-----9`----------------9`----9`----12-12-11h12p11~-------------|
|-------------------------------------------------------------------|
|-------------------------------------------------------------------|

Hail to all metal listeners..

  Visit MetalTabs.com for more metal tablature

bottom separator

Contact Us | Privacy Policy | Disclaimer | Legal Notice
Copyright © 2001-2014 MetalTabs.com. All Rights Reserved.