top separator

Home

Forum

What's New

Submit a Tab

FAQ

Links

Contact Us

Link to Us

MuSpy.com

MetalTabs.com logo

Bands

0-9

A

B

C

D

E

F

G

H

I

J

K

L

M

N

O

P

Q

R

S

T

U

V

W

X

Y

Z

Search

What

Where
 

Grave - "YouŽll never see" Guitar Tab

Plain Text Version
More Grave Tabs

Hits: 6103
Rated: 4.50 out of 5 (2 votes)
Updated: 2003-03-30 12:12:22

 

By:

INVERTED

sendpm.gif

email.gif

Important note
We did our best to reach Grave and ask for their permission to publish this tab. Unfortunately they did not respond to our requests or we could not find a way to contact them. This tab is available online until Grave tells us to take it down.


#----------------------------------PLEASE NOTE---------------------------------#
#This file is the author's own work and represents their interpretation of the #
#song. You may only use this file for private study, scholarship, or research. #
#Unless specified otherwise, this is NOT an official tab from the band members.#
#------------------------------------------------------------------------------#

  Visit MetalTabs.com for more metal tablature
  
                              GRAVE - YOU'LL NEVER SEE...
                          From the Album - YOU'LL NEVER SEE...
                            Copyright - Century Media 1992
                              Version 1.0 - Jan 26, 2003


Transcribed by: James Williams (INVERTED)

For Questions, Comments, Newest Version, or Corrections contact
INVERTED at Inverted_one@hotmail.com

Check Out Death8699.com Metaltabs.com or dsrmusic.com for More
Transcriptions:http://www.Death8699.com http://www.Metaltabs.com
http://www.dsrmusic.com/metaltab

.  - palm mute           /  - slide up to
\  - slide down to       ~  - vibrato
h  - hammer on           b  - Bend
p  - pull off            Suffixes for bend
t  - tap                 f  - full bend    h - half bend
ph - pinched harmonic    q  - quarter bend t - tap bend
*  - see comment         ^  - Hold bend    r - release bend
x  - Rest                ~  - vibrato bend
,  - slight palm mute    () - ghost note, sustained note
"  - tremolo note        <> - Trill

Tuning "B"E"A"D"F#"B"


Riff 1-A
|-----------------------------|
|-----------------------------|
|-----------------------------|
|------------7-------------9--|
|--------7\8-5--------9\10-7--|
|--0-0-0-5\6----0-0-0-7\-8----|
   . . .        . . .

Riff 1-B
|-----------------------------|
|-----------------------------|
|-----------------------------|
|------------3------------5---|
|--------3\4-1--------5\6-3---|
|--0-0-0-1\2----0-0-0-3\4-----|
   . . .        . . .

Fill 1
|-----------------------------|
|-----------------------------|
|-----------------------------|
|--2--------------------------|
|--2--------------------------|
|--0--------------------------|

You will never see... HEAVEN!!!


Riff 2-A
|--------------------------------------------|
|--------------------------------------------|
|--------------------------------------------|
|--------------------------------------------|
|--------------------------------------------|
|--1111000011114444444411110000111155555555--|


Riff 2-B
|--------------------------------------------|
|--------------------------------------------|
|--------------------------------------------|
|--------------------------------------------|
|--------------------------------------------|
|--1111000011114444444411110000000055555555--|


Riff 2-C
|--------------------------------------------|
|--------------------------------------------|
|--------------------------------------------|
|--3---2---3---6-------3---2---3---7---------|
|--3---2---3---6-------3---2---3---7---------|
|--1---0---1---4-------1---0---1---5---------|


Riff 3-A
|---------------------------|
|---------------------------|
|---------------------------|
|---------------------------|
|----3-----5--6--5--3--5----|
|-0--1--0--3--4--3--1--3----|
  .     .

Fill 2
|---------------------------|
|---------------------------|
|---------------------------|
|---------------------------|
|-2--3x---------------------|
|-0--1x---------------------|


Riff 3-B
|---------------------------|
|---------------------------|
|---------------------------|
|---------------------------|
|----3-----ph-ph-ph-ph-ph---|
|-0--1--0--3--4--3--1--3----|
  .     .

Riff 3-C
|---------------------------|
|---------------------------|
|---------------------------|
|---------------------------|
|---------------------------|
|-000111000333444333111333--|


Riff 4-A
|-----------------------------------------------|
|-----------------------------------------------|
|-----------------------------------------------|
|--2--2----------------2--2----------------4----|
|--2--2----2~---6~---/-2--2----2~---3~-----4----|
|--0--0----------------0--0----------------2----|
   .                   .

Riff 4-B
|-----------------------------------------------|
|-----------------------------------------------|
|-----------------------------------------------|
|--2--2----------------2--2---------------------|
|--2--2----2~---6~---/-2--2----2~---3~----------|
|--0--0----------------0--0----------------2~---|
   .                   .

Riff 4-C
|----------------------------------------------------|
|----------------------------------------------------|
|--------------8------------------------5------------|
|--2--2--------8------------2--2--------5------------|
|--2--2--------6------------2--2--------3------------|
|--0--0---------------------0--0---------------------|
   .                        .

Solo
|---------------------------------------------17^----17^----17^----
|---------------------------------------------bf-----bf-----bf-----
|---------------------------------17---15~-------------------------
|--bf-----bf-----bf-----14~----------------------------------------
|--12^----12^----12^-----------------------------------------------
|------------------------------------------------------------------


------------20---19~-----------------------------------------------
--17~--------------------------------------------------------------
-------------------------------------------------------------------
----------------------------------------------15--14~--------------
------------------------------------15--14~-------------15--14~----
------------------------12--14--15---------------------------------
                         .   .   .

-------------------------------------------------------------------|
----------------bf--------------17~-------17--16~------------------|
--16~-------16--15^-r(15)-15~-----------------------16--17--16~----|
-------------------------------------------------------------------|
-------------------------------------------------------------------|
-------------------------------------------------------------------|


Riff 5
|-------------------------|
|-------------------------|
|-------------------------|
|-------------------------|
|-------------------------|
|-0--1--0--3--4--3--1--3--|
  .  .  .  .  .  .  .  .

End
|-------------------------|
|-------------------------|
|-------------------------|
|--2--2--2x----2----------|
|--2--2--2x----2----------|
|--0--0--0x----0----------|
   .  .

Check out my other tabs by: Deicide, Obituary, Hypocrisy,
Grave, Catastrophic, Six Feet Under, Incantation, Death,
Cannibal Corpse, Broken Hope, Cancer, Dark Tranquillity,
Malevolent Creation, Lowbrow and Unleashed.

  Visit MetalTabs.com for more metal tablature

bottom separator

Contact Us | Privacy Policy | Disclaimer | Legal Notice
Copyright © 2001-2014 MetalTabs.com. All Rights Reserved.