#----------------------------------PLEASE NOTE---------------------------------#
#This file is the author's own work and represents their interpretation of the #
#song. You may only use this file for private study, scholarship, or research. #
#Unless specified otherwise, this is NOT an official tab from the band members.#
#------------------------------------------------------------------------------#

  Visit MetalTabs.com for more metal tablature
  
Timo Kotipelto - Waiting For The Dawn
The Album:  Waiting For The Dawn
Copyrighted to Century Media, 2002

Tabbed by Xythen
Email: xythen@hotmail.com
Version 1.0 August 2002

Tuning: Down  step (Eb Ab Db Gb Db Eb).

.      = palm mute
:      = repeated part
~      = vibrato
[x2]   = number of repeated times
/ or \ = slide up or down
b()    = bend to pitch in brackets

Intro
|-------------------------------------------------------------------------
|-------------------------------------------------------------------------
|-------------------------------------------------------------------------
|-------------5---------------------5---------------------5---------------
|---3---5-3-----3---3-----3---5-3-----3---3-----3---5-3-----3---3-----3---
|-5---5-----5-----5---5-4---4-----4-----4---4-3---3-----3-----3---3-1---1-

-------------------|
-------------------|
-------------------|
-1-----------3-----|
---3-----5-----5---|
-----1-3---3-----3-|


Chorus
                                              1st Time    2nd Time
|-----------------------------------------|---------------|-----|
|-----------------------------------------|---------------|-----|
|-----9-7---5---4----------------9-7---5--|-4-5-4---------|-12--|
|-----9-7---5---4---7--(7)/------9-7---5--|-4-5-4-5--(5)\-|-12--|
|-0-0-7-5-0-3---2---7--(7)/--0-0-7-5-0-3--|-2-3-2-5--(5)\-|-10--|
|-------------------5--(5)/---------------|-------3--(3)\-|-----|
  . .     .                  . .     .


Fill 1

|---------|
|---------|
|---------|
|-------0-|
|---0h2---|
|-3-------|

Verse
                    1st & 3rd Time       2nd Time               3rd Time
|-----------------|-----------------|-----------------|------------------------
|-----------------|-----------------|-----------------|------------------------
|-----------------|-------------7---|-----5-------7---|-----5-------5-----7-7-7
|-----2-------2---|-----5-------7---|-----5-------7---|-----5-------5-----7-7-7
|-----2-------2---|-----5---5-5-5-5-|-3-3-3-3-5-5-5-5-|-3-3-3-3-3-3-3-3/5-5-5-5
|-0-0-0-0-0-0-0-0-|-3-3-3-3---------|-----------------|------------------------
  . .   . . .   .   . .   . . .   .   . .   . . .   .   . .   . . .   .

-----------|
-----------|
-7-7-7-7-7-|
-7-7-7-7-7-|
-5-5-5-5-5-|
-----------|


Pre-Chorus
          [x3]             4th Time
|-------------|-----------------------------------|
|-------------|-----------------------------------|
|:-----7-----:|-----5-------5-----7-7-7-7-7-7-7-7-|
|:-5---7---2-:|-----5-------5-----7-7-7-7-7-7-7-7-|
|--5---5---2--|-3-3-3-3-3-3-3-3/5-5-5-5-5-5-5-5-5-|
|--3-------0--|-----------------------------------|
                . .   . . .   .


Solo

|------------------------------------------------------------------------
|-18b(19)-16-18-----------20-------18------------------------------------
|---------------17~-15-17----15-17----------19------17-------17-------15-
|-------------------------------------15-17---15-17----13-15----13-15----
|------------------------------------------------------------------------
|------------------------------------------------------------------------

-------------------------------------------------------------------------
-------------------------------------------------------------------------
-----------------------------------------------14b(15)-----------------17
-16b(17)-13-15------------------13-15-17-/17-----------17--15-13-15-17---
---------------15-----------/15------------------------------------------
------------------15~-(15)\----------------------------------------------

-------------------------------------------------------------------------
-------------------------------------------------------------------------
----------------------------17---------------------------17--------------
-15h17----------------15h17---17-15----------17-------17----17p15--------
-------15h17----15h18---------------18p15-18----18p15-------------18-15--
-------------15----------------------------------------------------------

-----------------------------------------------------------------|
-----------------------------------------------------------------|
---------------------------------16-18----19b(20)-16-15b-17AH~~--|
15-------------------------15-17-------17------------------------|
---18-17p15-17b(19)r17~-17---------------------------------------|
-----------------------------------------------------------------|

  Visit MetalTabs.com for more metal tablature