top separator

Home

Forum

What's New

Submit a Tab

FAQ

Links

Contact Us

Link to Us

MetalTabs.com logo

Bands

0-9

A

B

C

D

E

F

G

H

I

J

K

L

M

N

O

P

Q

R

S

T

U

V

W

X

Y

Z

Search

What

Where
 

Kotipelto - "Waiting for the Dawn" Bass Tab

Plain Text Version
More Kotipelto Tabs

Hits: 3195
Rated: 3.00 out of 5 (2 votes)
Updated: 2003-03-30 12:02:05

 

Important note
We did our best to reach Kotipelto and ask for their permission to publish this tab. Unfortunately they did not respond to our requests or we could not find a way to contact them. This tab is available online until Kotipelto tells us to take it down.


#----------------------------------PLEASE NOTE---------------------------------#
#This file is the author's own work and represents their interpretation of the #
#song. You may only use this file for private study, scholarship, or research. #
#Unless specified otherwise, this is NOT an official tab from the band members.#
#------------------------------------------------------------------------------#

  Visit MetalTabs.com for more metal tablature
  
Timo Kotipelto - Waiting For The Dawn
The Album:  Waiting For The Dawn
Copyrighted to Century Media, 2002

Tabbed by Xythen
Email: xythen@hotmail.com
Version 1.0 August 2002

Tune Down 1/2 Step

Intro

 x16  x16  x16   x8   x8
|---||---||---||---||---|
|---||---||---||---||---|
|---||---||---||---||---|
|-5-||-4-||-3-||-1-||-3-|

Chorus

 x24                x5 x24  x8
|---|-----------------|---|---|
|---|-----------------|---|---|
|-0-|-2-3-2-----------|-0-|---|
|---|-------3---3-3-3-|---|-3-|

Verse

  x8  x4  x4  x8  x4  x4  x8  x4  x4  x8  x8  x8
|---|---|---|---|---|---|---|---|---|---|---|---|
|---|---|---|---|---|---|---|---|---|---|---|---|
|---|---|-5-|---|-3-|-5-|---|---|-5-|---|-3-|-5-|
|-0-|-3-|---|-0-|---|---|-0-|-3-|---|-0-|---|---|

  x4  x4  x8  x4  x4  x8  x4  x4  x8  x8  x8
|---|---|---|---|---|---|---|---|---|---|---|
|---|---|---|---|---|---|---|---|---|---|---|
|---|-5-|---|---|-5-|---|---|-5-|---|-3-|-5-|
|-3-|---|-0-|-3-|---|-0-|-3-|---|-0-|---|---|

Bridge
                        x2
|-------------------------|
|-------------------------|
|-5-5---3-3---5-5------3--|
|-------------------1-----|

Solo

                 1st Time     2nd Time
|--------------|----------|--------------|
|--------------|----------|--------------|
|-3-3-3-3-3-3--|------1-1-|-8--6-5-3--1--|
|--------------|-3-3------|--------------|

Chorus After Solo

1st and 3rd Time
 x14            x8
|---|---------|---|-----------------|
|---|-----5h7-|---|-----------------|
|-0-|-5h7-----|-0-|-2-3-2-----------|
|---|---------|---|-------3---3-3-3-|

2nd and 4th Time
 x24                x5 x24  x8
|---|-----------------|---|---|
|---|-----------------|---|---|
|-0-|-2-3-2-----------|-0-|---|
|---|-------3---3-3-3-|---|-3-|

  Visit MetalTabs.com for more metal tablature

bottom separator

Contact Us | Privacy Policy | Disclaimer | Legal Notice
Copyright © 2001-2014 MetalTabs.com. All Rights Reserved.