top separator

Home

Forum

What's New

Submit a Tab

FAQ

Links

Contact Us

Link to Us

MetalTabs.com logo

Bands

0-9

A

B

C

D

E

F

G

H

I

J

K

L

M

N

O

P

Q

R

S

T

U

V

W

X

Y

Z

Search

What

Where
 

Coroner - "Masked Jackal" Guitar Tab

Plain Text Version
More Coroner Tabs

Hits: 9596
Rated: 4.29 out of 5 (7 votes)
Updated: 2003-03-28 15:41:32

 

By:

damonta

sendpm.gif

email.gif

Important note
We did our best to reach Coroner and ask for their permission to publish this tab. Unfortunately they did not respond to our requests or we could not find a way to contact them. This tab is available online until Coroner tells us to take it down.


#----------------------------------PLEASE NOTE---------------------------------#
#This file is the author's own work and represents their interpretation of the #
#song. You may only use this file for private study, scholarship, or research. #
#Unless specified otherwise, this is NOT an official tab from the band members.#
#------------------------------------------------------------------------------#

  Visit MetalTabs.com for more metal tablature
  
Coroner
	Masked Jakal
	Punishment For Decadence 1988
	by damonta murderhell@yahoo.com
                                                    _________
                                                          1.|
--|-riff1---------------------------------------------------|--
--|---------------------------------------------------------|--
--|.------------------10-10-10-9---------------------------.|--
-9|.------------------10-10-10-9---------------------------.|--
-7|-----2------2------8--8--8--7------2------2------3-6-3-2-|--
--|0000-0-0000-0-0000------------0000-0-0000-0-0000-1-4-1-0-|--
___________
2.
--------------------------|--riff2-----------------------------
--------------------------|------------------------------------
-------------6---7----10-.|-----|.-----------------------------
-5-2-3---5--6---7---10---.|-10\9|.----9-----10-----10-1010-----
-3-0-1--5--4---5---8------|--8\7|-----7------8------8-8-8------
-------3------------------|-----|0000---0000---0000------------
                  ________________
                     1.   |  2. 12/8 time
--------------------------|---riff3----------------------------
--------------------------|--------|---------------------------
-------------------------.|--------|.--------------------------
10\9---------------------.|-5-5-5-4|.----------542---420-------
-8\7------2-3/6-6-3-6-3-2-|-3-3-3-2|222-222-222---532---320----
-----0000-0-1/4-4-1-4-1-0-|--------|---------------------------
                  __________________________
                          1.    |  2.
--------------------------------|---------------|-riff2--------
--------------------------------|---------------|-riff3--------
---6-5-------------------3-----.|---------------|--------------
-4-4-3-333-333-333----235--3-4-.|-320---20------|--------------
-2-----------------235-----1-2--|----320--3-20--|--------------
--------------------------------|-------------0-|--------------

-12------------riff4------|--riff5--------------------3x-------
-12-----------------------|------------------------------------
.9--9--------------------.|------------------------------------
.9--9---10-1010\9--10\9-9.|-------.----------------------------
-7--7-2--8-8--8\7---8\7-7-|-3/5-.-5-3/5-6-5--3-3---------------
------0-------------------|-1/3-3-3-1/3-4-3--1-1-1111----------


------------------------riff6----------------------------------
---------------------------------------------------------------
----------------------.---------------------------------------.
---------------..-..-..---------------------------------------.
-3/5---5-3/5-6-56-78-9-----10------6------5------4-5----5-5-5-5
-1/3-3-3-1/3-4-34-56-7-8888-8-4444-4-3333-3-2222-2-333333-3-3-3

---------------------------------------------------------------
---------------------------------------------------------------
---------------8------------9-----------8----------------------
-------------10--10-------11--11------10-----------------------
------9-9--10------10---11------11--10---10---9----------------
-7777-7-7-8------------9-----------8------8-8-7----------------


---------------------------------------------------------------
----8---------9---------8--------------------------------------
---9--9-----10--10-----9--9---------solo-----------------------
--9----9--10------10--9----9---10--riff4-----------------------
-7-------8-----------7-----7-8-8-------------------------------
-----------------------------6---------------------------------
   +1 ~~~                                             +1    +1
---)\)--------^--+1------+1/2-12-------BAR-------------)15--|~~
-15------12-1512-|\^------)\^--------^-\/--^---------15---15---
----------------14-12-12-14-12--14-1211--11-9-12-14------------
---------------------------------------------------------------
-solo----------------------------------------------------------
---------------------------------------------------------------
                                       ^
-0-19-19-00-00-19-00-00-19-19---X-15-1412-1412----12-----------
----------------------------------------------1513--151312-----
---------------------------------------------------------------
---------------------------------------------------------------
------------------------------X--------------------------------
---------------------------------------------------------------

---------------------15----------------------------------------
-151312--1312----12--------------------------------------------
-------14----1412--14--12---^----------------------------------
--------------------------141214\---+1-------------------------
------------------------------------)-~~~~---------------------
----------------------------------13---------------------------

  Visit MetalTabs.com for more metal tablature

bottom separator

Contact Us | Privacy Policy | Disclaimer | Legal Notice
Copyright © 2001-2014 MetalTabs.com. All Rights Reserved.