top separator

Home

Forum

What's New

Submit a Tab

FAQ

Links

Contact Us

Link to Us

MuSpy.com

MetalTabs.com logo

Bands

0-9

A

B

C

D

E

F

G

H

I

J

K

L

M

N

O

P

Q

R

S

T

U

V

W

X

Y

Z

Search

What

Where
 

Cephalic Carnage - "Scolopendra Cingulata" Guitar Tab

Plain Text Version
More Cephalic Carnage Tabs

Hits: 7036
Rated: 4.00 out of 5 (7 votes)
Updated: 2003-03-28 14:52:42

 

By:

Father Death

sendpm.gif

email.gif

Important note
This tab is available online because we obtained explicit permission from Cephalic Carnage or their label.


#----------------------------------PLEASE NOTE---------------------------------#
#This file is the author's own work and represents their interpretation of the #
#song. You may only use this file for private study, scholarship, or research. #
#Unless specified otherwise, this is NOT an official tab from the band members.#
#------------------------------------------------------------------------------#

  Visit MetalTabs.com for more metal tablature
  
Band:	CEPHALIC CARNAGE
Album:	Lucid Interval
Song:	Scolopendra Cingulata

Transcribed by:	Chris Humeniuk
Email:	father_death_666@hotmail.com

Tuning: 2.5 steps down (B)

Keys:
  ___ - palm mute
 /or\ - slide


(Gtr 1)
|-----------------------------------------------------
|-----------------------------------------------------
|--------------------------8-8-8-8--------------------
|--------7-7-7-7-3---------7-7-7-7--3---------7-7-7-7-
|-0-0-0--x-x-x-x-3--2-2-2-----------3--2-2-2--x-x-x-x-
|-0-0-0--5-5-5-5-1--0-0-0-----------1--0-0-0--5-5-5-5-
  _____             _____              _____

(Gtr 2)
|-----------------------------------------------------
|-------------------------10101010\-------------------
|--------------------------8-8-8-8\-----------8-8-8-8-
|--------7-7-7-7-3---------7-7-7-7\-3---------7-7-7-7-
|-0-0-0--x-x-x-x-3--2-2-2-----------3--2-2-2----------
|-0-0-0--5-5-5-5-1--0-0-0-----------1--0-0-0----------
  _____             _____              _____

(Gtr 1)
 ---------------------------------------------------------
 ---------------------------------------------------------
 -------------------------------------------------8-8-8-8-
 -3---------7-7-7-7---3---------7-7-7-7-3---------7-7-7-7-
 -3--2-2-2--x-x-x-x---3--2-2-2--x-x-x-x-3--2-2-2----------
 -1--0-0-0--5-5-5-5---1--0-0-0--5-5-5-5-1--0-0-0----------
     _____               _____             _____

(Gtr 2)
 ----------------------------------------------------------
 ------------------------------------------------10101010\-
 ---------<5><5><5><5>----------8-8-8-8-----------9-9-9-9\-
 -3-------------------3---------7-7-7-7-3---------7-7-7-7\-
 -3--2-2-2------------3--2-2-2----------3--2-2-2-----------
 -1--0-0-0------------1--0-0-0----------1--0-0-0-----------
     _____               _____             _____

(Gtr 1)
 ---------------------------------------------------------
 ---------------------------------------------------------
 ---------------------------------------------------------
 -3---------7-7-7-7-3---------7-7-7-7---3---------7-7-7-7-
 -3--2-2-2--x-x-x-x-3--2-2-2--x-x-x-x---3--2-2-2--x-x-x-x-
 -1--0-0-0--5-5-5-5-1--0-0-0--5-5-5-5---1--0-0-0--5-5-5-5-
     _____             _____             _____

(Gtr 2)
 ---------------------------------------------------------
 ---------------------------------------------------------
 -----------8-8-8-8---------<5><5><5><5>----------8-8-8-8-
 -3---------7-7-7-7-3-------------------3---------7-7-7-7-
 -3--2-2-2----------3--2-2-2------------3--2-2-2----------
 -1--0-0-0----------1--0-0-0------------1--0-0-0----------
     _____             _____               _____

(Gtr 1)
 --------------------|
 --------------------|
 --------------------|
 -3---------7-7-7-7--|
 -3--2-2-2--x-x-x-x--|
 -1--0-0-0--5-5-5-5--|
     _____

(Gtr 2)
 --------------------|
 -------------6--6---|
 -----------9--9--9\-|
 -3------------------|
 -3--2-2-2-----------|
 -1--0-0-0-----------|
     _____

(Gtr 1)
|------------------------------------------------------|
|------------------------------------------------------|
|----------10-11-10-9---------------10-11-10-9-10-9--\-|
|-3------------------------3---------------------------|
|-3------------------------3---------------------------|
|-1--00000-----------------1--00000--------------------|
     _____                    _____

(Gtr 2)
|------------------------------------------------------|
|-----------7--8--7-6----------------7--8--7-6--7-6--\-|
|------------------------------------------------------|
|-3------------------------3---------------------------|
|-3------------------------3---------------------------|
|-1--00000-----------------1--00000--------------------| 3x
     _____                    _____

(Gtr 1)
|----------------------------------------------|
|----------------------------------------------|
|----------10-11-10-9--------------------------|
|-3------------------------3-------------------|
|-3------------------------3--3222-444-666-555-|
|-1--00000-----------------1--1000-222-444-333-|
     _____                    ________________

(Gtr 2)
|----------------------------------------------|
|-----------7--8--7-6--------------------------|
|----------------------------------------------|
|-3------------------------3-------------------|
|-3------------------------3--3222-444-666-555-|
|-1--00000-----------------1--1000-222-444-333-|
     _____                    ________________

  Visit MetalTabs.com for more metal tablature

bottom separator

Contact Us | Privacy Policy | Disclaimer | Legal Notice
Copyright © 2001-2014 MetalTabs.com. All Rights Reserved.