top separator

Home

Forum

What's New

Submit a Tab

FAQ

Links

Contact Us

Link to Us

MuSpy.com

MetalTabs.com logo

Bands

0-9

A

B

C

D

E

F

G

H

I

J

K

L

M

N

O

P

Q

R

S

T

U

V

W

X

Y

Z

Search

What

Where
 

Benediction - "Diary of a Killer" Guitar Tab

Plain Text Version
More Benediction Tabs

Hits: 3977
Updated: 2003-03-28 14:28:28

 

By:

sendpm.gif

email.gif

Important note
This tab is available online because we obtained explicit permission from Benediction or their label.


#----------------------------------PLEASE NOTE---------------------------------#
#This file is the author's own work and represents their interpretation of the #
#song. You may only use this file for private study, scholarship, or research. #
#Unless specified otherwise, this is NOT an official tab from the band members.#
#------------------------------------------------------------------------------#

  Visit MetalTabs.com for more metal tablature
  
                                 DIARY OF KILLER
                           (As recorded by Benediction
                        from the 2001 Organised Chaos album )
                             VERSION 1.0 - October 2002


Transcribed by Cristi Rachitovan
mail: decietful@hotmail.com
IRC:  undernet's #metal as "Stromblad"

h = hammer-on
p = pull-off
/ = slide

Tune to 1 whole step down (DGCFAD)

Very easy song here.
I did not waste my time noting the timing.

RIFF A
1st time (0:00 - 0:05)
D|----------------------------------|---------------------------------|
A|----------------------------------|---------------------------------|
F|----------------------------------|---------------------------------|
C|--2-2---2-2---2-2---2-2-----------|--2-2---2-2---2-2---2-2----------| G I
G|--2-2---2-2---2-2---2-2---7b9-7~--|--2-2---2-2---2-2---2-2-2-5-4-3--|
D|--0-0---0-0---0-0---0-0-0---------|--0-0---0-0---0-0---0-0-0-3-2-1--|
 |                        .                                  .......  |
D|----------------------------------|---------------------------------|
A|----------------------------------|---------------------------------|
F|----------------------------------|---------------------------------|
C|----------------------------------|---------------------------------| G II
G|--------------------------7b9-7~--|------------------------2-5-4-3--|
D|----------------------------------|------------------------0-3-2-1--|
                                                             .......
2,3,4th times (0:05 - 0:23)
D|----------------------------------|---------------------------------|
A|----------------------------------|---------------------------------|
F|----------------------------------|---------------------------------|
C|--2-2---2-2---2-2---2-2-----------|--2-2---2-2---2-2---2-2----------|
G|--2-2---2-2---2-2---2-2---7b9-7~--|--2-2---2-2---2-2---2-2-2-5-4-3--|
D|--0-0---0-0---0-0---0-0-0---------|--0-0---0-0---0-0---0-0-0-3-2-1--|
                          .                                  .......

RIFF B 2x (0:23 - 0:49)
D|-------------------------------|---------------------------------|
A|-------------------------------|---------------------------------|
F|-------------------------------|---------------------------------|
C|--2-2---2-2---2-2---2-2--------|--2-2---2-2---2-2---2-2----------|
G|--2-2---2-2---2-2---2-2-----3--|--2-2---2-2---2-2---2-2----------|
D|--0-0---0-0---0-0---0-0---1----|--0-0---0-0---0-0---0-0-3-4-1-3--|
                                                          .......
D|-------------------------------|---------------------------------|
A|-------------------------------|---------------------------------|
F|-------------------------------|---------------------------------|
C|--2-2---2-2---2-2---2-2--------|--2-2---2-2---2-2---2-2----------|
G|--2-2---2-2---2-2---2-2-----3--|--2-2---2-2---2-2---2-2-------3--|
D|--0-0---0-0---0-0---0-0---1----|--0-0---0-0---0-0---0-0-3-4-1----|
                                                          .....

RIFF C 2x (0:49 - 0:55) *
D|-----------------------------------|
A|-----------------------------------|
F|-----------------------------------|
C|------6-----7-----6-----7---6------|
G|----4-----5-----4-----5---4---3----|
D|--2-----3-----2-----3--------------|
    .     .     .     .

* - you can replace the bottom notes with simple D's if its hard to play

RIFF A 4x
RIFF C 2x
RIFF A 1x
RIFF B 4x
RIFF C 2x
RIFF A 4x
RIFF C 2x
RIFF A 1x

BRIDGE TO RIFF D (2:40 - 2:44)
D|-----------------------------------|
A|-----------------------------------|
F|-----------------------------------|
C|-----------------------------------|
G|--5-4-2---4-4-4-4-4-4-4-4-4-4-4-4--|
D|--3-2-0---2-2-2-2-2-2-2-2-2-2-2-2--|
    .....     ...   ...

RIFF D 4x (2:44 - 3:07)
D|-----------------------------------|
A|-----------------------------------|
F|-----------------------------------|
C|-----------------------------------|
G|--5-2-2-6-2-2-5-2-2-6-2-2-5-6-5-2--|
D|--3-0-0-4-0-0-3-0-0-4-0-0-3-4-3-0--|

D|-----------------------------------|
A|-----------------------------------|
F|-----------------------------------|
C|-----------------------------------|
G|--5-2-2-6-2-2-5-2-2-6-2-2-5-6-3----|
D|--3-0-0-4-0-0-3-0-0-4-0-0-3-4-1----|

RIFF B 4x
RIFF C 2x
RIFF A 1x

Thats all.
You'll figure out the minor variations - there is no use for tabbing those.

  Visit MetalTabs.com for more metal tablature

bottom separator

Contact Us | Privacy Policy | Disclaimer | Legal Notice
Copyright © 2001-2014 MetalTabs.com. All Rights Reserved.