top separator

Home

Forum

What's New

Submit a Tab

FAQ

Links

Contact Us

Link to Us

MetalTabs.com logo

Bands

0-9

A

B

C

D

E

F

G

H

I

J

K

L

M

N

O

P

Q

R

S

T

U

V

W

X

Y

Z

Search

What

Where
 

Lake of Tears - "Dreamdemons" Guitar Tab

Plain Text Version
More Lake of Tears Tabs

Hits: 3478
Rated: 5.00 out of 5 (1 vote)
Updated: 2003-03-28 14:25:01

 

By:

sendpm.gif

email.gif

Important note
This tab is available online because we obtained explicit permission from Lake of Tears or their label.


#----------------------------------PLEASE NOTE---------------------------------#
#This file is the author's own work and represents their interpretation of the #
#song. You may only use this file for private study, scholarship, or research. #
#Unless specified otherwise, this is NOT an official tab from the band members.#
#------------------------------------------------------------------------------#

  Visit MetalTabs.com for more metal tablature
  
Author/Artist: Lake of Tears
Title: Dreamdemons
Album: Headstones
Transcribed by: Maroun Abou Fayad
Email:maroun45@hotmail.com

Tune down to D (DGCFAD)

Here it is:
Intro:
 GUITAR:     BASS:
|-----------|------------|
|-----------|------------|
|-----------|------------|
|-7-------7-|------------|
|-7-------7-|----------5-|
|-5-------5-|5---5-6-8---|

Riff 1

|--------------------------|-------------------------|
|--------------------------|-------------------------|
|--------------------------|-------------------------|
|--5-----5-----5-----------|-3-----3-----3-----------|
|--5-----5-----5-------6-5-|-3-----3-----3-------1-0-|
|--3-3-3-3-3-3-3-3-3-3--3--|-1-1-1-1-1-1-1-1-1-1--1--|
     . .   . .   . . .  .      . .   . .   . . .  .
Riff 2:

"And I...Will send the demons..."
|-----------------------------------------------------------------|
|-----------------------------------------------------------------|
|-----------------------------------------------------------------|
|-8---------------8-------8-------7---------------7-------7-------|
|-8---------------8-------8-------7---------------7-------7-------|
|-6---------------6-------6-------5---------------5-------5-------|

 "And I...Will send all my minions..."
|-----------------------------------------------------------------|
|-----------------------------------------------------------------|
|-----------------------------------------------------------------|
|-8---------------8-------8-------7---------------7-------7---8---|
|-8---------------8-------8-------7---------------7-------7---8---|
|-6---------------6-------6-------5---------------5-------5---6---|

Riff 3:

"Only evil..."
|--------------------------------------------------------------|
|--------------------------------------------------------------|
|-7------------------------------------------------------------|
|-7--------------------8-7-----------------------------7---8---|
|-5--------------------8-7-----------------------------7---8---|
|----------------------6-5-----------------------------5---6---|

          "Evil demons..."
|-----------------------------------------|--------------------|
|-----------------------------------------|--------------------|
|-----------------------------------------|--------------------|
|-5-----------------------8-------7-------|------------7---8---|
|-5-----------------------8-------7-------|------------7---8---|
|-3-----------------------6-------5-------|------------5---6---|

Riff 4:
Rythm Guitar (distortion)
|----------|-----------|
|----------|-----------|
|-10---9---|--7--------|
|-10---9---|--7--8--7--|
|--8---7---|--5--8--7--|
|----------|-----6--5--|

Lead Guitar (clean electric)
|------------------------------------------------------------------|
|------------------------------------------------------------------|
|------------------------------------------------------------------|
|------------------------------------------------------------------|
|---7-8-7---7---7---7-5-7---7---7----------------------------------|
|-5-------5---5---5-------5---5-----8-10-8---8---8---7-8-7---5---5-|
|---------------------------------6--------6---6---5-------5---5---|

Riff 5:

Rythm GUitar (distortion)
|----------------------------------------|
|----------------------------------------|
|--7777777777777777----------------------|
|--7777777777777777--88888888--77777777--|
|--5555555555555555--88888888--77777777--|
|--------------------66666666--55555555--|
P.M......................................|

(This melodie is included in the 5th riff)

       "You took my heart..."
|-----------------------------------------------------------------|
|-----------------------------------------------------------------|
|-----------------------------------------------------------------|
|-12------------------------14-15-----------15-14------------15-14|
|---------------------------------13--------------12--------------|
|-----------------------------------------------------------------|

Solo:
|-------------------------------------------------------------------------|
|-------------------------------------------------------------------------|
|-/7~~7~~7/14-12----12-12/14-12-12/14-12/14-12---12-------12\-------------|
|----------------15---------------------------15----15-14-----/15-14-12~--|
|-------------------------------------------------------------------------|
|-------------------------------------------------------------------------|

|-------------------------------------------------------------------------|
|-------------------------------------------------------------------------|
|-------------------------------------------------------------------------|
|-----------------------------------------------5-7-5-------------5-7-8-7~|
|-15-/13-12~~~/13-12-12~-13-12-10---------5-7-8------8-7-5--5-7-8---------|
|----------------------------------13-12\---------------------------------|

|-------------------------------------------------------|
|-------------------------------------------------------|
|-/7-5-----/7-5---5-------------------------------------|
|------8-7~-----8---8-7-5-----/8-7~~\--/10-8--7~/8-7-7~-|
|-------------------------------------------------------|
|-------------------------------------------------------|

Outro:
|-------------------------------|
|-------------------------------|
|-10-9-7-------------7----------|
|-10-9-7-10-8-----10-7----------|
|--8-7-5-10-8-----10-5----------|
|---------8-6------8------------|

  Visit MetalTabs.com for more metal tablature

bottom separator

Contact Us | Privacy Policy | Disclaimer | Legal Notice
Copyright © 2001-2014 MetalTabs.com. All Rights Reserved.