top separator

Home

Forum

What's New

Submit a Tab

FAQ

Links

Contact Us

Link to Us

MetalTabs.com logo

Bands

0-9

A

B

C

D

E

F

G

H

I

J

K

L

M

N

O

P

Q

R

S

T

U

V

W

X

Y

Z

Search

What

Where
 

Red Harvest - "Dead Men Don't Rape" Guitar Tab

Plain Text Version
More Red Harvest Tabs

Hits: 4292
Rated: 5.00 out of 5 (3 votes)
Updated: 2003-03-28 14:16:39

 

By:

sendpm.gif

email.gif

Important note
This tab is available online because we obtained explicit permission from Red Harvest or their label.


#----------------------------------PLEASE NOTE---------------------------------#
#This file is the author's own work and represents their interpretation of the #
#song. You may only use this file for private study, scholarship, or research. #
#Unless specified otherwise, this is NOT an official tab from the band members.#
#------------------------------------------------------------------------------#

  Visit MetalTabs.com for more metal tablature
  
                                  DEAD MEN DON'T RAPE
                              (As recorded by Red Harvest
                     from the 2002 album Sick Transit Gloria Mundi)
                           VERSION 1.0 - October 27th 2002


Transcribed by Cristi Rachitovan
mail: decietful@hotmail.com
IRC:  undernet's #metal as "Stromblad"

As far as i know this is the first tab of Red Harvest on the internet. \m/
Easy yet excellent song! Must be the best cover version of DMDR.

~ = vibrato


Tune to 1 whole step down (DGCFAD)
I won't waste my time noting the timing.


RIFF A   4x (0:23 - 0:46)
D|-----------------------------------------------|
A|-----------------------------------------------|
F|-----------------------------------------------|
C|------3-----------3-----------3-----------4-4--|
G|--3-4-1---3-4-3-4-1---3-4-3-4-1---3-4-3-4-2-2--|
D|--1-2-----1-2-1-2-----1-2-1-2-----1-2-1-2------|


RIFF B 8x (0:47 - 1:32)
D|-------------13~--------11~-------13~\---------|
A|-----------------------------------------------|
F|--11~------------------------------------------|
C|-----------------------------------------------|
G|-----------------------------------------------|
D|-----------------------------------------------|

RIFF B+D 4x (1:32 - 1:59)


RIFF C   8x (1:59 - 2:22)
D|------------------|
A|------------------|
F|------------------|
C|------------------|
G|--44444444-5-2-2--|
D|--22222222-3-0-0--|


RIFF D with RIFF B 4x (2:22 - 2:45)
D|---------------------------------------------------|
A|---------------------------------------------------|
F|---------------------------------------------------|
C|------3-4-3-------3-4-3-------3-4-3-------3-4-6-7--|
G|--3-4-1-2-1-5-3-4-1-2-1-5-3-4-1-2-1-5-3-4-1-2-4-5--|
D|--1-2-------3-1-2-------3-1-2-------3-1-2----------|


RIFF B   8x (2:45 - 3:30)
RIFF B+D 4x (3:30 - 3:53)
RIFF C   8x (3:56 - 4:22)

  Visit MetalTabs.com for more metal tablature

bottom separator

Contact Us | Privacy Policy | Disclaimer | Legal Notice
Copyright © 2001-2014 MetalTabs.com. All Rights Reserved.