top separator

Home

Forum

What's New

Submit a Tab

FAQ

Links

Contact Us

Link to Us

MuSpy.com

MetalTabs.com logo

Bands

0-9

A

B

C

D

E

F

G

H

I

J

K

L

M

N

O

P

Q

R

S

T

U

V

W

X

Y

Z

Search

What

Where
 

Lake of Tears - "Sweetwater" Guitar Tab

Plain Text Version
More Lake of Tears Tabs

Hits: 3364
Updated: 2003-03-28 13:53:59

 

By:

sendpm.gif

email.gif

Important note
This tab is available online because we obtained explicit permission from Lake of Tears or their label.


#----------------------------------PLEASE NOTE---------------------------------#
#This file is the author's own work and represents their interpretation of the #
#song. You may only use this file for private study, scholarship, or research. #
#Unless specified otherwise, this is NOT an official tab from the band members.#
#------------------------------------------------------------------------------#

  Visit MetalTabs.com for more metal tablature
  
Author/Artist: Lake of Tears
Title: Sweetwater
Album: Headstones
Transcribed by: Maroun Abou Fayad
Email:maroun45@hotmail.com

Tune down to D (DGCFAD)

Intro:
       F5     F5      G5    G5
|--------------------------------|
|--------------------------------|
|--------------------------------|
|------3-----3-3-----5-----5-5---|
|------3-----3-3-----5-----5-5---|
|--1-1-1-1-1-1-1-3-3-3-3-3-3-3---|
   . .   . .     . .   . .

Riff 1:
|--------------|-----|
|--------------|-----|
|--------5-----|-----|
|--7--3--5--5--|--3--|
|--7--3--3--5--|--3--|
|--5--1-----3--|--1--|

Riff 2:
  Am                F       E
|-0---0---0---0---|---------------|
|-----------------|-1---1---0-1-0-|
|---2---2---2---2-|---------------|
|-----------------|---3---3-------|
|-----------------|---------------|
|-----------------|---------------|


Riff 3:
  F                 G
|-----------------|---------0-------|
|-1---1---3-1-0/--|-3---3-----3-1/3-|
|-----------------|---0---0---------|
|---3---3---------|-----------------|
|-----------------|-----------------|
|-----------------|-----------------|

solo:
I-------------------------------------------------------------------------I
I------------8-10--------------------------------/10----------------------I
I-----9---9-------9-7--------------------9-10-9------9-12-10-9-10-9----9--I
I--/7---7-------------10-9-9-----9-10-12----------------------------12----I
I-----------------------------12------------------------------------------I
I-------------------------------------------------------------------------I
        . .                    .  .  .  .

I--------------------------------------------------------------------------I
I--------10----10----------------------------------------------------------I
I-----------12----9-9------------------------------------------------------I
I--10\9--------------/12\10-9----------------------------------------------I
I-----------------------------12-10-10-12----------12----------------10\8--I
I----------------------------------------10-12---------10-12-13-12~~-------I

Outro:
|-----|
|-----|
|-----|
|--7--|
|--7--|
|--5--|

  Visit MetalTabs.com for more metal tablature

bottom separator

Contact Us | Privacy Policy | Disclaimer | Legal Notice
Copyright © 2001-2014 MetalTabs.com. All Rights Reserved.