top separator

Home

Forum

What's New

Submit a Tab

FAQ

Links

Contact Us

Link to Us

MuSpy.com

MetalTabs.com logo

Bands

0-9

A

B

C

D

E

F

G

H

I

J

K

L

M

N

O

P

Q

R

S

T

U

V

W

X

Y

Z

Search

What

Where
 

Lake of Tears - "A foreign road" Guitar Tab

Plain Text Version
More Lake of Tears Tabs

Hits: 3491
Rated: 4.00 out of 5 (1 vote)
Updated: 2003-03-28 13:51:04

 

By:

sendpm.gif

email.gif

Important note
This tab is available online because we obtained explicit permission from Lake of Tears or their label.


#----------------------------------PLEASE NOTE---------------------------------#
#This file is the author's own work and represents their interpretation of the #
#song. You may only use this file for private study, scholarship, or research. #
#Unless specified otherwise, this is NOT an official tab from the band members.#
#------------------------------------------------------------------------------#

  Visit MetalTabs.com for more metal tablature
  
Author/Artist: Lake of Tears
Title: A Forein Road
Album: Headstones
Transcribed by: Maroun Abou Fayad
Email:maroun45@hotmail.com

Tune down to D (DGCFAD)

Here it is:

Intro and Outro:
|----------|---------------|----------|-------------|
|----------|---------------|----------|-------------|
|----------|---------7/9/7-|-7/9-9--9-|-7/9---------|
|-7/9-9--9-|-7/9-7/9-7/9/7-|-7/9-9--9-|-7/9-9--4/7--|
|-7/9-9--9-|-7/9-7/9-5/7/5-|-5/7-7--7-|-5/7-9--4/7--|
|-5/7-7--7-|-5/7-5/7-------|----------|-----7--2/5--|

|----------|---------------|---------------|
|----------|---------------|---------------|
|----------|---------7/9/7-|-7/9-9-9\7-9---|
|-7/9-9--9-|-7/9-7/9-7/9/7-|-7/9-9-9\7-9-7-|
|-7/9-9--9-|-7/9-7/9-5/7/5-|-5/7-7-7\5-7-7-|
|-5/7-7--7-|-5/7-5/7-------|-------------5-|

Riff 1:
|---------|
|---------|
|---------|
|-4-4-2-4-|
|-4-4-2-4-|
|-2-2-0-2-|

Riff 2:
|---------------------------------|
|---------------------------------|
|---------------------------------|
|----4----------------------------|
|--2---2----2------4--5--4--2-----|
|---------5---2--3-------------5--|

Riff 3:
|-----------------------------------------------------------------|
|-----------------------------------------------------------------|
|-4-4-4-4-4-4-4-4-4-4-4-4-4-4-4-4-4-4-4-4-4-4-4-4-----9-9-7-7-6-6-|
|-4-4-4-4-4-4-4-4-4-4-4-4-4-4-4-4-4-4-4-4-4-4-4-4-----9-9-7-7-6-6-|
|-2-2-2-2-2-2-2-2-2-2-2-2-2-2-2-2-2-2-2-2-2-2-2-2-0-0-7-7-5-5-4-4-|
|-----------------------------------------------------------------|
    . .   . .   .   . .   . .   .   . .   . .   . . .   .    .   .

  Visit MetalTabs.com for more metal tablature

bottom separator

Contact Us | Privacy Policy | Disclaimer | Legal Notice
Copyright © 2001-2014 MetalTabs.com. All Rights Reserved.