top separator

Home

Forum

What's New

Submit a Tab

FAQ

Links

Contact Us

Link to Us

MuSpy.com

MetalTabs.com logo

Bands

0-9

A

B

C

D

E

F

G

H

I

J

K

L

M

N

O

P

Q

R

S

T

U

V

W

X

Y

Z

Search

What

Where
 

Lake of Tears - "Twilight" Guitar Tab

Plain Text Version
More Lake of Tears Tabs

Hits: 3345
Updated: 2003-03-28 13:55:16

 

By:

sendpm.gif

email.gif

Important note
This tab is available online because we obtained explicit permission from Lake of Tears or their label.


#----------------------------------PLEASE NOTE---------------------------------#
#This file is the author's own work and represents their interpretation of the #
#song. You may only use this file for private study, scholarship, or research. #
#Unless specified otherwise, this is NOT an official tab from the band members.#
#------------------------------------------------------------------------------#

  Visit MetalTabs.com for more metal tablature
  
Author/Artist: Lake of Tears
Title: Twilight
Album: Headstones
Transcribed by: Maroun Abou Fayad
Email:maroun45@hotmail.com

Tune down to D (DGCFAD)

Here it is:

Electric(distortion):
Intro:
|---------------|-------------------|
|---------------|-------------------|
|---------------|-------------------|
|-7-7\3/5-5/7-5-|-10-10\7\5-7-5/7-3-|
|-7-7\3/5-5/7-5-|-10-10\7\5-7-5/7-3-|
|-5-5\1/3-3/5-3-|--8--8\5\3-5-3/5-1-|



Riff 1
|---------------|
|---------------|
|---------------|
|-7-7\3/5-5/7-5-|
|-7-7\3/5-5/7-5-|
|-5-5\1/3-3/5-3-|

Riff 2
|-------------------|
|-------------------|
|-------------------|
|-10-10\7\5-7-5/7-3-|
|-10-10\7\5-7-5/7-3-|
|--8--8\5\3-5-3/5-1-|

Riff 3
|---------------|
|---------------|
|---------------|
|---------5---5-|
|---------5---5-|
|-3-3-3-3-3-3-3-|
  . . . .   .

Chorus(=Riff 4)

|--------|----------|------------|-----------|
|--------|----------|------------|-----------|
|--------|----------|------------|-----------|
|-7---7--|--10--10--|--10\7---7--|--7\5---5--|
|-7---7--|--10--10--|--10\7---7--|--7\5---5--|
|-5-5-5--|---8-8-8--|---8\5-5-5--|--5\3-3-3--|
    .          .            .           .

Riff 5

|--------------------------------------|
|--------------------------------------|
|--------------------------------------|
|-7--3-5--7-5--3--5-10--7-5--7--3--7-5-|
|-7--3-5--7-5--3--5-10--7-5--7--3--7-5-|
|-5--1-3--5-3--1--3--8--5-3--5--1--5-3-|

Riff 6
|---------------|
|---------------|
|---------------|
|-3---3-3-----2-|
|-3---3-3-----2-|
|-1-1-1-1-0-0-0-|
    .     . .

Acoustic:
Intro
|-----------------------------|--------------------------------|
|-----------------------------|--------------------------------|
|-----------------------------|--------------------------------|
|-2-2/7-7\2-2/10-7-5-2-2h5-5--|-2-2/7-7\2-2/10-14-12-10-10p9-9-|
|-----------------------------|--------------------------------|
|-----------------------------|--------------------------------|

|-----------------------------|------------12----|
|-----------------------------|------10-12----13-|
|-----------------------------|-10/12------------|
|-5-5/10-10-10/14-14/17\12-12-|------------------|
|-----------------------------|------------------|
|-----------------------------|------------------|

Riff 1
|-----------------------------|--------------------------------|
|-----------------------------|--------------------------------|
|-----------------------------|--------------------------------|
|-2-2/7-7\2-2/10-7-5-2-2h5-5--|-2-2/7-7\2-2/10-14-12-10-10p9-9-|
|-----------------------------|--------------------------------|
|-----------------------------|--------------------------------|

Riff 2
|-----------------------------|------------12----|
|-----------------------------|------10-12----13-|
|-----------------------------|-10/12------------|
|-5-5/10-10-10/14-14/17\12-12-|------------------|
|-----------------------------|------------------|
|-----------------------------|------------------|

Chorus
|-----------------------------------------------------|
|-----------------------------------------------------|
|----------7----------7/9-7----------------------7----|
|-2/7-7-10---10-10-10-------10-7-7/10-7-7\5-7/10---10-|
|-----------------------------------------------------|
|-----------------------------------------------------|

  Visit MetalTabs.com for more metal tablature

bottom separator

Contact Us | Privacy Policy | Disclaimer | Legal Notice
Copyright © 2001-2014 MetalTabs.com. All Rights Reserved.