top separator

Home

Forum

What's New

Submit a Tab

FAQ

Links

Contact Us

Link to Us

MuSpy.com

MetalTabs.com logo

Bands

0-9

A

B

C

D

E

F

G

H

I

J

K

L

M

N

O

P

Q

R

S

T

U

V

W

X

Y

Z

Search

What

Where
 

Darkthrone - "Transilvanian Hunger" Guitar Tab

Plain Text Version
More Darkthrone Tabs

Hits: 15243
Rated: 3.81 out of 5 (16 votes)
Updated: 2003-03-28 13:47:33

 

By:

Nidhoegrr

sendpm.gif

email.gif

Important note
This tab is available online because we obtained explicit permission from Darkthrone or their label.


#----------------------------------PLEASE NOTE---------------------------------#
#This file is the author's own work and represents their interpretation of the #
#song. You may only use this file for private study, scholarship, or research. #
#Unless specified otherwise, this is NOT an official tab from the band members.#
#------------------------------------------------------------------------------#

  Visit MetalTabs.com for more metal tablature
  
			TRANSILVANIAN HUNGER

Artist:	Darkthrone
Album:	Transilvanian Hunger

tabbed by Nidhoegrr (Berndsworld@gmx.de)


t.p.	= tremolo picking
1	= let ring



Riff 1:		played 8x

git 1

  ______t.p._______________________
 |
|----------------------------------|
|----------------------------------|
|----------------------------------|
|12--10---9--10--10---9--10---9----|
|-0---0---0---0---7---7---7---7----|
|----------------------------------|
|		                   |
git 2		                   |
| ______t.p._______________________|
||		                   |
|----------------------------------|
|----------------------------------|
|----------------------------------|
|-2---------------9----------------|
|-0---------------7----------------|
|-----------------0----------------|
|				   |
Bass				   |
|				   |
|----------------------------------|
|----------------------------------|
|-0000000000000000-----------------|
|-----------------0000000000000000-|



Riff 2:		played 8x

git 1

  ____________t.p._________________
 |
|----------------------------------|
|-10-------------10----------------|
|--9------8-------9-------4---5----|
|--7------8-------7-------3---3----|
|---------6------------------------|
|----------------------------------|
|			           |
| ____________t.p._________________|
||			           |
|----------------------------------|
|----------------------------------|
|-2-------8-------2-------4---5----|
|-2-------8-------2-------3---3----|
|-0-------6-------0----------------|
|----------------------------------|
|				   |
Bass				   |
|				   |
|----------------------------------|
|---------11111111-----------------|
|-00000000--------0000000022223333-|
|----------------------------------|


Riff 1:		played 4x

Riff 2:		played 4x



Riff 3:		played 6x

git 1

  _________t.p.____________________
 |
|----------------------------------|
|----------------------------------|
|----------------------------------|
|-2---------------3----------------|
|-2---------------3----------------|
|-0---------------1----------------|
|			           |
git 2				   |
|				   |
|-----0-------0-------1-------1----|
|-----0-------0-------1-------1----|
|-----2-------2-------1-------1----|
|-2---2---2---2---3---3---3---3----|
|-2-------2-------3-------3--------|
|-0-------0-------1-------1--------|
| 1   1   1   1   1   1   1   1    |
|				   |
Bass Nr. 1			   |
|				   |
|----------------------------------|
|----------------------------------|
|----------------------------------|
|-00000000000000001111111111111111-|
|				   |
Bass Mr. 2			   |
|				   |
|----------------------------------|
|----------------------------------|
|-77777777777777778888888888888888-|
|----------------------------------|

3rd time Bass Nr. 2 played instead of Bass Nr. 1



Riff 1:		played 4x

Riff 2:		played 4x

Riff 1:		played 8x


Riff 1b:	played 2x

git 1

  ______t.p._______________________
 |
|----------------------------------|
|----------------------------------|
|----------------------------------|
|12--10---9--10--10---9--10---9----|
|-0---0---0---0---7---7---7---7----|
|----------------------------------|
|		                   |
git 2		                   |
| ______t.p._______________________|
||		                   |
|----------------------------------|
|----------------------------------|
|----------------------------------|
|-2---------------9----------------|
|-0---------------7----------------|
|-----------------0----------------|
|				   |
Bass				   |
|				   |
|----------------------------------|
|-7777777777777777-----------------|
|-----------------7777777777777777-|


Riff 1c:	played	2x and fade out slowly

git 1

  ______t.p._______________________
 |
|----------------------------------|
|----------------------------------|
|-----------------9----------------|
|12--10---9--10------12-10-9---10--|
|-0---0---0---0--------------------|
|----------------------------------|
|		                   |
git 2		                   |
| ______t.p._______________________|
||		                   |
|----------------------------------|
|----------------------------------|
|----------------------------------|
|-2---------------9----------------|
|-0---------------7----------------|
|-----------------0----------------|
|				   |
Bass				   |
|				   |
|----------------------------------|
|----------------------------------|
|-0000000000000000-----------------|
|-----------------0000000000000000-|

Riff 1:		played 2x and fade out

  Visit MetalTabs.com for more metal tablature

bottom separator

Contact Us | Privacy Policy | Disclaimer | Legal Notice
Copyright © 2001-2014 MetalTabs.com. All Rights Reserved.