top separator

Home

Forum

What's New

Submit a Tab

FAQ

Links

Contact Us

Link to Us

MetalTabs.com logo

Bands

0-9

A

B

C

D

E

F

G

H

I

J

K

L

M

N

O

P

Q

R

S

T

U

V

W

X

Y

Z

Search

What

Where
 

Immortal - "Damned in black" Guitar Tab

Plain Text Version
More Immortal Tabs

Hits: 14930
Rated: 3.84 out of 5 (19 votes)
Updated: 2003-03-28 13:28:15

 

Important note
We did our best to reach Immortal and ask for their permission to publish this tab. Unfortunately they did not respond to our requests or we could not find a way to contact them. This tab is available online until Immortal tells us to take it down.


#----------------------------------PLEASE NOTE---------------------------------#
#This file is the author's own work and represents their interpretation of the #
#song. You may only use this file for private study, scholarship, or research. #
#Unless specified otherwise, this is NOT an official tab from the band members.#
#------------------------------------------------------------------------------#

  Visit MetalTabs.com for more metal tablature
  
Band:  Immortal
Album: Damned in Black
Song:  Damned in Black

Transcribed By: ben
Email:          tab_zone@yahoo.com


.  - palm mute           /  - slide up to
\  - slide down to       ~  - vibrato
h  - hammer on           b  - Bend
p  - pull off            Suffixes for bend
t  - tap                 f  - full bend    h - half bend
ah- pinched harmonic    q  - quarter bend t - tap bend
*  - see comment         ^  - Hold bend    r release bend
x  - Stuccatto           ~  - vibrato bend
,  - slight palm mute    () - ghost note, sustained note
"  - tremolo note        <> - Trill

|----------------|
|----------------|
|-9~~------------|
|-9~~---2-----x\-|
|-7~~---2-----x\-|
|-------0-----x\-|

Main Riff
|-----------------------------------------------------------------------|
|-----------------------------------------------------------------------|
|--9--9-9-9--16-16-16--16-16-16--14-14-14--14-14-14--17-17-17--17-17-17-|
|-----------------------------------------------------------------------|
|--7--7-7-7--14-14-14--14-14-14--12-12-12--12-12-12--15-15-15--15-15-15-|
|-----------------------------------------------------------------------|

|-----------------------------------------------------------------------|
|-----------------------------------------------------------------------|
|--9--9-9-9--16-16-16--16-16-16--14-14-14--14-14-14--19-19-19--19-19-19-|
|-----------------------------------------------------------------------|
|--7--7-7-7--14-14-14--14-14-14--12-12-12--12-12-12--17-17-17--17-17-17-|
|-----------------------------------------------------------------------|

Verse
p.m.................................................
|---------------------------------------------------------------------------|
|---------------------------------------------------------------------------|
|---------------------------------------------------------------------------|
|---------------------------------------------------2-2-2-2-2-2--0-0-0-0-0-0|
|---------------------------------------------------3-3-3-3-3-3--2-2-2-2-2-2|
|0-0-0-0-0-0--0-0-0-0-0-0--0-0-0-0-0-0--0-0-0-0-0-0-------------------------|

     p.m............................................
|---------------------------------------------------------------------------|
|---------------------------------------------------------------------------|
|---------------------------------------------------------------------------|
|---------------------------------------------------2-2-2-2-2-2--3-3-3-5p3-3|
|2-2------------------------------------------------3-3-3-3-3-3--5-5-5-5-5-5|
|0-0---0-0-0--0-0-0-0-0-0--0-0-0-0-0-0--0-0-0-0-0-0-------------------------|


Bridge Riff
|---------------------------------------------------|
|---------------------------------------------------|
|---------------------------------------------------|
|---------------------------------------------------|
|-15----14-----15-----12-----14-----10-----12-----9-|
|---0-0----0-0----0-0----0-0----0-0----0-0----0-0---|

|------------------------------------------------|
|------------------------------------------------|
|------------------------------------------------|
|------------------------------------------------|
|-15----14-----15-----12-----14-----10----8--8--8|
|---0-0----0-0----0-0----0-0----0-0----0-10-10-10|

|---------------------------------------------------|
|---------------------------------------------------|
|---------------------------------------------------|
|---------------------------------------------------|
|-15----14-----15-----17-----14-----10-----12-----9-|
|---0-0----0-0----0-0----0-0----0-0----0-0----0-0---|

|-------------------------------------------------|
|-------------------------------------------------|
|-------------------------------------------------|
|-------------------------------------------------|
|-15----14-----15-----17-----14-----10----8--8--8-|
|---0-0----0-0----0-0----0-0----0-0----0-10-10-10-|

Chorus
|---------------------------------------------------------------------|
|---------------------------------------------------------------------|
|---------------------------------------------------------------------|
|---------------------------------------------------------------------|
|9-9-9-9-9-9---9-9-9-9-9-9---7-7-7-7-7-7-7-7---10-10-10-10-10-10-10-10|
|7-7-7-7-7-7-0-7-7-7-7-7-7-0-5-5-5-5-5-5-5-5-0-8--8--8--8--8--8--8--8-|

|---------------------------------------------------------------------|
|---------------------------------------------------------------------|
|---------------------------------------------------------------------|
|-----------------------------------------------------7-7-7-7-7-7-7-7-|
|9-9-9-9-9-9---9-9-9-9-9-9---10-10-10-10-10-10-10-10--5-5-5-5-5-5-5-5-|
|7-7-7-7-7-7-0-7-7-7-7-7-7-0-8--8--8--8--8--8--8--8-0-5-5-5-5-5-5-5-5-|

2nd bridge
p.m...........  ...   ................  ....  ....
|-------------------------------------------------|
|-------------------------------------------------|
|-------------------------------------------------|
|-------------3-----2-----------------3-----2-----|
|-2-0-0-2-0-0---0-0---0-0-2-0-0-2-0-0---0-0---0-0-|
|-------------------------------------------------|

p.m...........  ...   ................  ....  ....
|-------------------------------------------------|
|-------------------------------------------------|
|-------------------------------------------------|
|-------------------------------------------------|
|-------------7-----6-----------------7-----6-6-6-|
|-6-4-4-6-4-4---4-4---4-4-6-4-4-6-4-4---4-4-------|

Clean part
|------------------------------------------------------|
|------------------------------------------------------|
|---13--13--13--12--12--12----13--13--13--12--12--12---|
|------------------------------------------------------|
|-----11--11--11--10--10--10----11--11--11--10--10--10-|
|-0--------------------------0-------------------------|

|------------------------------------|
|------------------------------------|
|--10-10-10-9-9-9----10-10-10-9-9-9--|
|------------------------------------|
|----8--8--8-7-7-7-5---8--8--8-7-7-7-|
|-0----------------------------------|


3rd Bridge
                                              p.m...  ......   .......      a.h.
|------------------------------------------------------------------------------|
|------------------------------------------------------------------------------|
|13--13-13-13-12-----13--13-13-13-12-------------------------------------------|
|--------------------------------------------------0-----------------222-------|
|11--11-11-11-10-----11--11-11-11-10------3--------3--------3------------333---|
|----------------0-0-----------------0-0--1--1-1-1-1--1-1-1-1--1-1-1---------4~|

last time
|-------------------------------------------------------------------|
|-------------------------------------------------------------------|
|-13--13-13-13-12-----13--13-13-13-12-------------------------------|
|-------------------------------------------------------------------|
|-11--11-11-11-10-----11--11-11-11-10------9-9-9-10-9-7-7-7-9-7-5-2-|
|-----------------0-0-----------------0-0--7-7-7-8--7-5-5-5-7-5-3-0-|

  Visit MetalTabs.com for more metal tablature

bottom separator

Contact Us | Privacy Policy | Disclaimer | Legal Notice
Copyright © 2001-2014 MetalTabs.com. All Rights Reserved.