top separator

Home

Forum

What's New

Submit a Tab

FAQ

Links

Contact Us

Link to Us

MuSpy.com

MetalTabs.com logo

Bands

0-9

A

B

C

D

E

F

G

H

I

J

K

L

M

N

O

P

Q

R

S

T

U

V

W

X

Y

Z

Search

What

Where
 

Racer X - "Street Lethal" Guitar Tab

Plain Text Version
More Racer X Tabs

Hits: 14123
Rated: 3.60 out of 5 (15 votes)
Updated: 2003-03-28 13:26:34

 

Important note
We did our best to reach Racer X and ask for their permission to publish this tab. Unfortunately they did not respond to our requests or we could not find a way to contact them. This tab is available online until Racer X tells us to take it down.


#----------------------------------PLEASE NOTE---------------------------------#
#This file is the author's own work and represents their interpretation of the #
#song. You may only use this file for private study, scholarship, or research. #
#Unless specified otherwise, this is NOT an official tab from the band members.#
#------------------------------------------------------------------------------#

  Visit MetalTabs.com for more metal tablature
  
Transcribed By: (Ferran Leal)
Email:          (necrocomix@hotmail.com)

Intro Riff

     PM----------------------------------------------------------|
|-----------------|-----------------|-----------------|----------0----|
|-----------------|-----------------|-----------------|----------0----|
|-----------------|-----------------|-----------------|---------------|
|-----------------|-----------------|-----------------|---------------|
|-----------------|-----------------|-----------------|---------------|
|-0-5-5-5-0-5-5-5-|-0-5-5-5-0-5-5-5-|-0-4-4-4-0-4-4-4-|-0-4-4-4-------|


          PM--|   PM|   PM--|   PM|                   PM----------------|
|-----------------|--------------|--------------------|----------------|
|-----------------|------------3-|-(3)----------------|----------------|
|-------------2---|---4-----2--2-|-(2)--7p6p4---------|----------------|
|-------4-----2---|---4-----2--0-|-(0)--------7-6-4---|----------------|
|-------4---------|--------------|------------------7-|-5-4------------|
|-2-2-2---2-2---2-|-2---2-2------|--------------------|-----7-5-4-0----|


         PM--|   PM|   PM--|   PM-----------
|-----------------|-----------------|
|-----------------|-----------------|
|-------------2---|---4-------------|
|-------4-----2---|---4-------------|
|-------4---------|-----------5-7-9-|
|-2-2-2---2-2---2-|-2---2-2-2-------|


 -------------------------------------|
|-------------------------|-----------------------|
|-------------------------|-------------7h10p7----|
|-------------6-----------|-6-7-9-6-7-9-----------|
|-6-7-9-6-7-9---9-7-6-7-9-|-----------------------|
|-------------------------|-----------------------|
|-------------------------|-----------------------|



  PM--|   PM|   PM--|   PM|                    PM----------------|
|-----------------|---------------|--------------------|----------------|
|-----------------|-------------3-|-(3)----------------|----------------|
|-------------2---|---4-----2---2-|-(2)--9p7p6---------|----------------|
|-------4-----2---|---4-----2---0-|-(0)--------9-7-6---|----------------|
|-------4---------|---------------|------------------9-|-7-5------------|
|-2-2-2---2-2---2-|-2---2-2-------|--------------------|-----9-7-5-4----|


  PM--|   PM|   PM--|   PM|          PM----------------------|
|-----------------|----------------|-----------------|--------------|
|-----------------|----------------|-----------------|--------------|
|-------------2---|---4-----2------|-----------------|--------------|
|-------4-----2---|---4-----2------|-----------------|--------------|
|-------4---------|------------x\--|-----------------|--------------|
|-2-2-2---2-2---2-|-2---2-2----x\--|-0-5-5-5-0-5-5-5-|-0-4-4-4-0----|


 Harmony Break
  E5                 F5
|-------|----------|---------|--------|
|-------|----------|---------|--------|
|-------|----------|---------|--------|
|-2-----|-(2)------|-3-------|-(3)----|
|-2-----|-(2)------|-3-------|-(3)----|
|-0-----|-(0)------|-1-------|-(1)----|


||-----------14----------------14-------|
||o-14-15-17----17-15-14-15-17----17-15-|
||--------------------------------------|
||--------------------------------------|
||o-------------------------------------|
||--------------------------------------|
|
|   Gtr II
||-----------10----------------10-------|
||o-10-12-14----14-12-10-12-14----14-12-|
||--------------------------------------|
||--------------------------------------|
||o-------------------------------------|
||--------------------------------------|


|----------14-15-17S19-17-15-------------||
|-14-15-17-------------------19-17-15---o||
|----------------------------------------||
|----------------------------------------||
|---------------------------------------o||
|----------------------------------------||
|
|----------10-12-14S15-14-12-------------||
|-10-12-14-------------------15-14-12---o||
|----------------------------------------||
|----------------------------------------||
|---------------------------------------o||
|----------------------------------------||


 Guitar Solo

     ~~~~~
|--------------|----------------------12h14-|
|-19b21--------|-(19)s=7--14-12h14h16-------|
|--------------|----------------------------|
|--------------|----------------------------|
|--------------|----------------------------|
|--------------|----------------------------|


|-16p14p12h===12s11h12h14p12p11----11-------|
|----------16-------------------14----14----|
|-------------------------------------------|
|-------------------------------------------|
|-------------------------------------------|
|-------------------------------------------|



|-------------------------11h16p11s9h11h12p|
|-12h14p12p11----11----12------------------|
|-------------13----13---------------------|
|------------------------------------------|
|------------------------------------------|
|------------------------------------------|


  E
|-11p9----9---------------x-11-|-9-------------------------------|
|------12---12-11-9h11h12------|---12-11-9-----------------------|
|------------------------------|-----------11-9-8----------------|
|------------------------------|------------------11-9-8-9-11----|
|------------------------------|---------------------------------|
|------------------------------|---------------------------------|



                PM--------|   ~            ~~~~~
|---------------------------|-----------|-----------------------|
|---------------------------|-----------|------------9h11h12----|
|-8h9p8p6-------------------|-----------|-11b13-----------------|
|---------9-8-6-------------|-----------|-----------------------|
|---------------9-7-6-------|-----------|-----------------------|
|---------------------9-7-6S|=4------x--|-----------------------|


|-9h11h12p11p9----9---------------|
|--------------12---12-11-9-11-12-|
|---------------------------------|
|---------------------------------|
|---------------------------------|
|---------------------------------|


                                                   ~~~
|-9h11h12p11p9---------------------|------------------------|
|--------------12p11p9-------------|------------------------|
|----------------------11-9-8------|--------8h9p8-(8)--x----|
|-----------------------------11-9-|-8-9-11-----------------|
|----------------------------------|------------------------|
|----------------------------------|------------------------|


  D#
   PM--------------------------------------------------------------------|
|-------------------------------------|-------------------------------------|
|-------------------------------------|-------------------------------------|
|-------------------------------------|-------------------------------------|
|-------------------------------------|----------13----------------13-14-16-|
|----------13----------------13-14-16-|-13-14-16----16-14-13-14-16----------|
|-12-14-16----16-14-12-14-16----------|-------------------------------------|


|----------------------------------------|
|----------------------------------------|
|----------13----------------13h15h16----|
|-13-14-16----16-14-13-14-16-------------|
|----------------------------------------|
|----------------------------------------|


                                           G#m
|----------------------------------------|----------16----------------16-18----|
|----------------------------------------|-16h17h19----19-17-16h17h19----------|
|-15h16p15----15----------------15-16-18-|-------------------------------------|
|----------18----18-16-14-16-18----------|-------------------------------------|
|----------------------------------------|-------------------------------------|
|----------------------------------------|-------------------------------------|


                  ~~~~~
|-19p18p16----16-19b21----|-(19)----------18h21p18s16h18h|
|----------19-------------|------------19----------------|
|-------------------------|----------x-------------------|
|-------------------------|------------------------------|
|-------------------------|------------------------------|
|-------------------------|-------0----------------------|


|-19p18p16----16-------------------------------|
|----------19----19p17h19p17p16s15h16h18p16----|
|----------------------------------------------|
|----------------------------------------------|
|----------------------------------------------|
|----------------------------------------------|


  E
|-------------------------------|-------------------------------------|
|-15----15----------------------|-15h16h19p16p15----15----------------|
|----18----18p16h18p16p15----15-|----------------18----18-16h18p16p15-|
|-------------------------18----|-------------------------------------|
|-------------------------------|-------------------------------------|
|-------------------------------|-------------------------------------|


|---------------------------------------|
|--------15h16h19p16p15----15-----------|
|-----15----------------18----18-16h====|
|-18------------------------------------|
|---------------------------------------|
|---------------------------------------|


                         C#m
                  ~~
|----------------------|-------------------------------|
|----------------------|-------------------------------|
|-18p16p15h===15-16----|-------------13h15h16p15p13----|
|----------18----------|-8s=13h14h16----------------16-|
|----------------------|-------------------------------|
|----------------------|-------------------------------|


|-------------------------------------|
|-------------------------------------|
|-15p13-------------------13----------|
|-------16-14h16-13-14-16----16-14----|
|-------------------------------------|
|-------------------------------------|


                                    ~~
|--------------------------------|-----------|
|--------------------------------|-----------|
|--------------------------------|-----------|
|-13----------13-----------------|-----------|
|----16-14-13----16-14-13--------|-----------|
|-------------------------16--16-|-16--------|


  A
   PM------------------------------|
|----------------------------------------|
|----------------------------------------|
|----------------------------13----------|
|-------------------13-14-16----16-14----|
|----------12-14-16----------------------|
|-12-14-16-------------------------------|


   PM------------|
|----------------------------14-------|----------16h17h19p17p16----19b21----|
|-------------------14h16h17----17-16-|-16h17h19----------------19----------|
|----------13-14-16-------------------|-------------------------------------|
|-13-14-16----------------------------|-------------------------------------|
|-------------------------------------|-------------------------------------|
|-------------------------------------|-------------------------------------|
|
| Gtr II
|-------------------------------------|-------------------------------------|
|-------------------------------------|-------------------------------------|
|-------------------------------------|-----------------------------------x-|
|-------------------------------------|-------------------------------------|
|-------------------------------------|-------------------------------------|
|-------------------------------------|-------------------------------------|


                          F#m
|-(19)---20b22---20b23--|-20b24\------|----|
|-----------------------|-------------|----|
|-----------------------|-------------|----|
|-----------------------|-------------|----|
|-----------------------|-------------|----|
|-----------------------|-------------|----|
|
|-----------------------|-------------|----|
|-----------------------|-------------|----|
|--<2>---<2>-----<2>----|-<2>---------|----|
|-----------------------|-------------|----|
|-----------------------|-------------|----|
|-----------------------|-------------|----|


 Outro
  (E)                    (D#m)
  PM-----------------------------------------
|----------------------|--------------------|
|----------------------|--------------------|
|------13-11-9---------|------11-9-8--------|
|-9-13---------13-11-9-|-8-11--------11-9-8-|
|----------------------|--------------------|
|----------------------|--------------------|


  (Cm)
 ---------------|    ~~~
|-----------------|-----------|-------*|
|-----------------|-----------|-------*|
|-----9-8-6-------|-----------|-------*|
|-6-9-------9-8-6-|-[5]-------|-6\----*|
|-----------------|------6----|-6\----*|
|-----------------|---------7-|-4\----*|

  Visit MetalTabs.com for more metal tablature

bottom separator

Contact Us | Privacy Policy | Disclaimer | Legal Notice
Copyright © 2001-2014 MetalTabs.com. All Rights Reserved.