top separator

Home

Forum

What's New

Submit a Tab

FAQ

Links

Contact Us

Link to Us

MetalTabs.com logo

Bands

0-9

A

B

C

D

E

F

G

H

I

J

K

L

M

N

O

P

Q

R

S

T

U

V

W

X

Y

Z

Search

What

Where
 

Pestilence - "Process Of Suffocation" Guitar Tab

Plain Text Version
More Pestilence Tabs

Hits: 5740
Rated: 4.00 out of 5 (1 vote)
Updated: 2003-03-28 13:16:02

 

Important note
This tab is available online because we obtained explicit permission from Pestilence or their label.


#----------------------------------PLEASE NOTE---------------------------------#
#This file is the author's own work and represents their interpretation of the #
#song. You may only use this file for private study, scholarship, or research. #
#Unless specified otherwise, this is NOT an official tab from the band members.#
#------------------------------------------------------------------------------#

  Visit MetalTabs.com for more metal tablature
  
Artist:	Pestilence
Album:	Consuming Impulse
Song:	The Process of Suffocation

Copyright (c) Roadrunner 1989
Version 1.0 - 30. Dec. 2002

Transcribed by: Daniel F. (lokis_vault@gmx.net)

For exact timing and order listen to the song.
For corrections, suggestions ...etc contact my e-mail-address


Tune down one whole step to "D"

.  - palm mute
b  - bend
h  - hammer on
\  - slide down
ph - pinched harmonic


1)

|-------------------------------------------------------------------|
|-------------------------------------------------------------------|
|-------------------------------------------------------------------|
|-3---6--7--6--7--6------4------------------------------------------|
|-3---6--7--6--7--6------4------------------------------------------|
|-1---4--5--4--5--4--5-4-2------------------------------------------|
                     . .

Riff 1	8x


|---------------------------------|
|---------------------------------|
|---------------------------------|
|---4-----------------------------|
|---4-----------------------------|
|---2-----------------------------|


2)

|-------------------------------------------------------------------|
|-------------------------------------------------------------------|
|-------------------------------------------------------------------|
|-4--5---------4--5---------4--5------------------------------------|
|-------------------------------------------------------------------|
|------1-1-1-1------1-1-1-1------1-1-1-1-3-2-2-2-5-4-4-4------------|
       . . . .      . . . .      . . . . . . . . . . . .

|-------------------------------------------------------------------|
|-------------------------------------------------------------------|
|-------------------------------------------------------------------|
|-4--5---------4--5---------4--5------------------------------------|
|-------------------------------------------------------------------|
|------1-1-1-1------1-1-1-1------1-1-1-1-3-2-2-5-4-4-6-5------------|
       . . . .      . . . .      . . . . . . . . . . . .

Riff 2	2x


3)

|-------------------------------------------------------------------|
|-------------------------------------------------------------------|
|-------------------------------------------------------------------|
|-2---5--6--5--6--5------3------------------------------------------|
|-2---5--6--5--6--5------3------------------------------------------|
|-0---3--4--3--4--3--4-3-1------------------------------------------|
                     . .

Riff 3	8x


4)

|-------------------------------------------------------------------|
|-------------------------------------------------------------------|
|-----------------5-------5-----------------------------------------|
|-2-222-222-2-5-3-5---5-3-5---5-3-----------------------------------|
|-2-222-222-2-5-3-3---5-3-3---5-3-----------------------------------|
|-0-000-000-0-3-1-----3-1-----3-1-----------------------------------|
  . ... ... .

Riff 4	8x


|---------------------------------|
|---------------------------------|
|---------------------------------|
|---2-----------------------------|
|---2-----------------------------|
|---0-----------------------------|


5)

|-------------------------------------------------------------------|
|-------------------------------------------------------------------|
|-------------------------------------------------------------------|
|-4--5---------4--5---------4--5------------------------------------|
|-------------------------------------------------------------------|
|------1-1-1-1------1-1-1-1------1-1-1-1-3-2-2-2-5-4-4-4------------|
       . . . .      . . . .      . . . . . . . . . . . .

|-------------------------------------------------------------------|
|-------------------------------------------------------------------|
|-------------------------------------------------------------------|
|-4--5---------7--8---------4--5------------------------------------|
|-------------------------------------------------------------------|
|------1-1-1-1------4-4-4-4------1-1-1-1-3-2-2-5-4-4-6-5------------|
       . . . .      . . . .      . . . . . . . . . . . .

Riff 5	1x
Riff 2   1x

6)

|-------------------------------------------------------------------|
|-------------------------------------------------------------------|
|----------5--4-----4-----------------------------------------------|
|-2--3--5--5--4--4--4--5--------------------------------------------|
|-2--3--5--3--2--4--2--5--------------------------------------------|
|-0--1--3--------2-----3--------------------------------------------|

Riff 6	12x
Riff 2	2x
Riff 3	4x


7)

|-------------------------------------------------------------------|
|-------------------------------------------------------------------|
|-----------------5-------5-----------------------------------------|
|-2-2-2-2-2-2-5-3-5---5-3-5---5-3-----------------------------------|
|-2-2-2-2-2-2-5-3-3---5-3-3---5-3-----------------------------------|
|-0-0-0-0-0-0-3-1-----3-1-----3-1-----------------------------------|
  . . . . . .

Riff 7	4x
Riff 3	1x



Solo 1 (Riff 6)

|-------------------------------------------------------------------|
|-------------------------------------------------------------------|
|-------------------------------------9-----------------------------|
|-----------------------8-------------------------------------------|
|-10\7----7-9-10-7-9-10---10-9-7-9-10-------------------------------|
|------8------------------------------------------------------------|

|-------------------------------------------------------------------|
|--------------------------12---------------------------------------|
|------11h12p-12-11-9-11-12----12-11-12-9-12------------------------|
|-9h10p-------------------------------------------------------------|
|-------------------------------------------------------------------|
|-------------------------------------------------------------------|

|----12----------12-14-15-14h15p-12-14~-----------------------------|
|-12----13-12h13p---------------------------------------------------|
|-------------------------------------------------------------------|
|-------------------------------------------------------------------|
|-------------------------------------------------------------------|
|-------------------------------------------------------------------|

|-12----------------------------------------------------------------|
|----12-14-15-13-15-16-17-16-14-16-15-13----------------------------|
|----------------------------------------15--15--15-14-12-12~-------|
|-------------------------------------------------------------------|
|-------------------------------------------------------------------|
|-------------------------------------------------------------------|

|-------------------------------------------------------------------|
|-11h12p----------13------------------------------------------------|
|-------12-14-15----15-14-12~---------------------------------------|
|-------------------------------------------------------------------|
|-------------------------------------------------------------------|
|-------------------------------------------------------------------|

Solo 2 ?

End

  Visit MetalTabs.com for more metal tablature

bottom separator

Contact Us | Privacy Policy | Disclaimer | Legal Notice
Copyright © 2001-2014 MetalTabs.com. All Rights Reserved.