top separator

Home

Forum

What's New

Submit a Tab

FAQ

Links

Contact Us

Link to Us

MuSpy.com

MetalTabs.com logo

Bands

0-9

A

B

C

D

E

F

G

H

I

J

K

L

M

N

O

P

Q

R

S

T

U

V

W

X

Y

Z

Search

What

Where
 

Warlock - "Without You" Guitar Tab

Plain Text Version
More Warlock Tabs

Hits: 4784
Rated: 5.00 out of 5 (4 votes)
Updated: 2003-03-23 15:12:51

 

Important note
We did our best to reach Warlock and ask for their permission to publish this tab. Unfortunately they did not respond to our requests or we could not find a way to contact them. This tab is available online until Warlock tells us to take it down.


#----------------------------------PLEASE NOTE---------------------------------#
#This file is the author's own work and represents their interpretation of the #
#song. You may only use this file for private study, scholarship, or research. #
#Unless specified otherwise, this is NOT an official tab from the band members.#
#------------------------------------------------------------------------------#

  Visit MetalTabs.com for more metal tablature
  
Song:      Without You
Artist:    Doro/Warlock
Album:     Burning the witches
Tabbed by: Dirk Desmet
E-mail:    desmet_dirk@hotmail.com
Website:   http://www.tuinkabouters.be.tf
Date:      sunday, 29 December 2002


Intro:
Clean

      Dm                Dm           F

e: |-----------------|--------5------------1------------1-----|
b: |------6-5^6------|------6---6--------1---1--------1---1---|
g: |----7-------7--.-|----7-------7----2-------2----2-------2-|
d: |--7------------.-|--7------------3------------3-----------|
a: |-----------------|----------------------------------------|
e: |-----------------|----------------------------------------|
    [    : 3 times  ]


      E             G

e: |--------0-------------1--------|
b: |------0---0---------0---0------|
g: |----1-------1-----0-------0----|
d: |-------------------------------|
a: |--2----------------------------|
e: |----------------3--------------|

with distortion

e: |------------------------------------------------|
b: |------------------------------------------------|
g: |--7-7-----10-10-5-5-7-7-------------------------|
d: |--7-7-7-7-10-10-5-5-7-7-7-7--x-x-x--------------|
a: |--5-5-7-7-8--8--3-3-5-5-7-7--x-x-x--------------|
e: |------5-5---------------5-5--x-x-x--------------|


e: |-------------------------------8-8--------------|
b: |-------------------------------8-8--------------|
g: |--7-7-7-7-5-4-3-3-3-3-10-10-10-9-9--------------|
d: |--7-7-7-7-5-4-3-3-3-3-10-10-10-10-10------------|
a: |--5-5-5-5-3-2-1-1-1-1-8--8--8--10-10------------|
e: |-------------------------------8--8-------------|

Solo 1:

e: |----------------------------8------------------------|
b: |-------(6)----------6-8-10~~--8-----6^5^6^5^6^5------|
g: |--5^7~~-7-5-5^7~~-7-------------9---------------5^7--|
d: |-----------------------------------------------------|
a: |-----------------------------------------------------|
e: |-----------------------------------------------------|

Solo 2:

e: |------------------13---------------------------------|
b: |---------------15----15-15--15-13--------------------|
g: |--14~~14-12-----------------------15-15-15-15-14-14--|
d: |------------15---------------------------------------|
a: |-----------------------------------------------------|
e: |-----------------------------------------------------|

e: |------------------------------------------------|
b: |--15-13------------------this part and the part-|
g: |--------15-14-12---------above you have to -----|
d: |-----------------15------repeat twice-----------|
a: |------------------------------------------------|
e: |------------------------------------------------|

From here, i don't know if it's right. There's a solo after this,
and i don't know if it's right.

e: |---------------------)-----13----13-------------|
b: |-?-?-?-?-?-?-------13--13----13----15-13^15-----|
g: |-14^13^12^14-15^14------------------------------|
d: |------------------------------------------------|
a: |------------------------------------------------|
e: |------------------------------------------------|

  Visit MetalTabs.com for more metal tablature

bottom separator

Contact Us | Privacy Policy | Disclaimer | Legal Notice
Copyright © 2001-2014 MetalTabs.com. All Rights Reserved.